Song name
# A B C D E F G H I J K L M N O P Q R S T U V W X Y Z

The Outline - Why Were Better Now tab

-------------------------------------------------------------------------------
			     WHY WE'RE BETTER NOW - The Outline
-------------------------------------------------------------------------------
Tabbed by: Sean Law
Email: 

Tuning: Standard (EADGBe)

I got bored one night and decided to tab out the intro to this song.
It should be about 90% correct.

e|---------------------------------------------------------------------|
B|-----------------------------------------------12--------------------|
G|-13-13-13-13--------------------------------------11-----------------|
D|-------------13-13-13-13-14-14-14-14--------14-----------------------|
A|-------------------------------------14------------------------------|
E|---------------------------------------------------------------------|


e|-----------------------------------------|
B|-----------------------------------------|
G|-13-13-13-13-----------------------------|
D|-------------13------14p13---------------|
A|---------------------------14------------|
E|-----------------------------------------|

x2

I was tired when I did this, so I might not have put in the proper amount
of times to pluck a string, but you can figure that out if I messed up.




| /  slide up
| \  slide down
| h  hammer-on
| p  pull-off
| ~  vibrato
| +  harmonic
| x  Mute note
===============================================================================
Tap to rate this tab
# A B C D E F G H I J K L M N O P Q R S T U V W X Y Z