Song name
# A B C D E F G H I J K L M N O P Q R S T U V W X Y Z

The Pack Ad - Dannemora Blues tab

Another extremely simple but catchy song from Vancouver's The Pack A.D.
The only real trick if you're a noob like me is getting the rhythm of the main riff down
and maintaining it throughout the song, since it's really what drives everything.

Only my second tab ever, so feedback appreciated!

Main riff (E)
-------------|
-------------|
-------------|
-------------|
---5h7---7---|
-------7-----|

Repeat that through most of the song, letting the last note ring a while.
Leave out the 5h7 the very first bar of the song.
To avoid it becoming too boring, Becky changes volume and effects slightly throughout 
song.
Improvise, I guess.

The last time before the chorus you can substitute:

-------------|
-------------|
-------------|
-------------|
---5h7---5---|
-------7-----|


Chorus
A                G
----------------------------------------|
----------------------------------------|
----------------------------------------|
----------------------------------------|
-0-0-0-0-0-0-0-0------------------------|
-----------------3-3-3-3-3-3-3-3-3------|

Becky varies the G bit slightly, sometimes going back up to A for the 8th note,
or trailing off and not really playing the last few.

E
Oh, Mr. Perry
Oh, Mr. Perry
Tell me what is your condition, Sir?
I know you're a sad man
But are you truly a bad man?

A        G
God damn ...
Dannemora blues

E
Oh, Mr. Perry
Oh, Mr. Perry
Tell me what is your condition, Sir?
I know you're a mad man
But are you truly a bad man?

A        G
God damn ...
Dannemora blues

First Bridge
 A  G A E    A  G A E    A  G A A  G A
---------------------------------------|
---------------------------------------|
---------------------------------------|
-7------2----7------2----7----7-7----7-|
-7----7-2----7----7-2----7----7-7----7-|
-5--3-5-0----5--3-5-0----5--3-5-5--3-5-|

E
Oh, Mr. Perry
Oh, Mr. Bones
Tell me what is your condition, Sir?
Why do you starve yourself
And why did you blind yourself?

A        G
God damn ...
Dannemora blues

E (main riff)

A        G
God damn ...
Dannemora blues

Second Bridge
 A  G A E
----------|
----------|
----------|
-7----7-2-| (x3)
-7--5-7-2-|
-5--3-5-0-|

 A  G A
--------|
--------|
--------|
-7------| (x2)
-7----7-|
-5--3-5-|

 A  G A EEDE
-------------|
-------------|
----------2--|
-7------2202-|  (x3)
-7----7-2202-|
-5--3-5-00-0-|

 A  G A
--------|
--------|
--------|
-7----7-| (x2)
-7--5-7-|
-5--3-5-|

E (main riff)

A        G
God damn ...
Dannemora blues

E (main riff)

A        G
God damn ...
Dannemora blues

E (main riff) to end
Tap to rate this tab
# A B C D E F G H I J K L M N O P Q R S T U V W X Y Z