Song name
# A B C D E F G H I J K L M N O P Q R S T U V W X Y Z

The Pack Ad - Shiney Things tab

Help us improve GuitareTab! Take a short survey!
Slide required
Main riff:
e---------------------------------------------------------------------------|
b----------7-------------7-------------5---------------10-------------------|
g--------7---7---------7---7---------5---5----------10----10----------------|
d------7-------7-----7-------7-----5-------5-----10----------10-------------|
a--3/5-----------3/5-----------5/3-----------3/8----------------------------|
e---------------------------------------------------------------------------|

e---------------------------------------------------------------------------|
b----------7-------------7-------------5---------10---10/-------------------|
g--------7---7---------7---7---------5---5-------10---10/-------------------|
d------7-------7-----7-------7-----5-------5-----10---10/-------------------|
a--3/5-----------3/5-----------5/3-----------3/8----------------------------|
e---------------------------------------------------------------------------|

Chorus: (syncopated with drums)
e------------------------------------|
b------------------------------------|
g--7---5-----------7---5-------------|
d--7---5---5---3---7---5---5---3-----|
a--5---3---5---3---5---3---5---3-----|
e----------3---1-----------3---1-----|
Related for Shiney Things tab