Song name
# A B C D E F G H I J K L M N O P Q R S T U V W X Y Z

The Pack Ad - Sirens tab

Song Title: Sirens
Artist: The Pack A.D.
Album Title: Unpersons

Verse(1):
e|--------------------------------------------------||
B|--------------------------------------------------||
G|--------------------------------------------------||
D|--------------------------------------------------||
A|-------------------5--4--3----3----3--3--3--0-----||
E|---5----5----5--0---------------------------------||

Chorus:
e|--------------------------------------------------||
B|--------------------------------------------------||
G|-------------------7--6--5----5----5--5--5--------||
D|---7----7----7--0--7--6--5----5----5--5--5--0-----||
A|---7----7----7--0--5--4--3----3----3--3--3--0-----||
E|---5----5----5--0---------------------------0-----||

Verse(2):
e|--------------------------------------------------||
B|--------------------------------------------------||
G|--------------------------------------------------||
D|--------------------------------------------------||
A|-------------------5--4--3----3----3--5--6--7-----||
E|---5----5----5--0---------------------------------||

Bridge:
e|--------------------------------------------------||
B|--------------------------------------------------||
G|--------------------------------------------------||
D|---------------------------------------7---7------||
A|---5--6--7--5--6--7--5--6--7--5--6--7--7---7------||
E|---------------------------------------5---5------||
Tap to rate this tab
 
# A B C D E F G H I J K L M N O P Q R S T U V W X Y Z