Song name
# A B C D E F G H I J K L M N O P Q R S T U V W X Y Z

The Pack Ad - Haunt You tab

Song Title: Haunt You
Artist: The Pack A.D.
Album Title: Unpersons

Intro/Verse/Chorus:
e|---------------------||
B|---------------------||
G|---------------------||
D|--4---7---2---4------||
A|--4---7---2---4------||
E|--2---5---0---2------||

Pre-Chorus:
e|-----------------------------------------||
B|-----------------------------------------||
G|---11-----------7--7---------------------||
D|---11---11-11---7--7-----7-----4---------||
A|---9----11-11---5--5-----7-----4---------||
E|--------9--9----------5--5--0--2---------||
Tap to rate this tab
# A B C D E F G H I J K L M N O P Q R S T U V W X Y Z