Song name
# A B C D E F G H I J K L M N O P Q R S T U V W X Y Z

The Pack Ad - Deer tab

-------------------------------------------------------------------------------
                             DEER  The Pack A.D.
-------------------------------------------------------------------------------


Tabbed by: goatsandmonkeys
E-mail: rsjhenwood@hotmail.com

Tuning: Standard

The only part I'm not absolutely sure of is the bridge, but it sounds close enough.
Other than that, as always, listen to the song for rhythm and such.
Enjoy :)


Intro:

e|-------------------------------------------------------|
B|-------------------------------------------------------|
G|----8--8----11--11-----6--6----8--8------4--4----------|
D|-------------------------------------------------------|
A|----9--9----12--12-----7--7----9--9------5--5----------|
E|----7--7----10--10-----5--5----7--7------3--3----------|


Verses:

e|-------------------------------------------------------------------------------|
B|-------------------------------------------------------------------------------|
G|---8-8-8-8-8-8-8-8-8-8-8-8-8-8-8-8----8--8----11--11----6--6----8--8----4--4---|
D|-------------------------------------------------------------------------------|
A|---9-9-9-9-9-9-9-9-9-9-9-9-9-9-9-9----9--9----12--12----7--7----9--9----5--5---|
E|---7-7-7-7-7-7-7-7-7-7-7-7-7-7-7-7----7--7----10--10----5--5----7--7----3--3---|
   P.M. . . . . . . . . . . . . . . .


Pre-Chorus:

e|------------------------------------------------------------------------------|
B|------------------------------------------------------------------------------|
G|---x-x-8-x-x-8-x-8---x-x-6-x-x-6-x-6---x-x-4-x-x-4-x-4-x-x-4-x-x-4-x-4--------|
D|------------------------------------------------------------------------------|
A|---9-9-9-9-9-9-9-9---7-7-7-7-7-7-7-7---5-5-5-5-5-5-5-5-5-5-5-5-5-5-5-5--------|
E|---7-7-7-7-7-7-7-7---5-5-5-5-5-5-5-5---3-3-3-3-3-3-3-3-3-3-3-3-3-3-3-3--------|
     P.M. . . . . . . . . . . . . . . . . . . . . . . . . . . . . . . .

e|------------------------------------------------------------------------------|
B|------------------------------------------------------------------------------|
G|---x-x-8-x-x-8-x-8---x-x-6-x-x-6-x-6---x-x-4-x-x-4-x-4-3-3-3-3-3-3-3-3--------|
D|------------------------------------------------------------------------------|
A|---9-9-9-9-9-9-9-9---7-7-7-7-7-7-7-7---5-5-5-5-5-5-5-5-4-4-4-4-4-4-4-4--------|
E|---7-7-7-7-7-7-7-7---5-5-5-5-5-5-5-5---3-3-3-3-3-3-3-3-2-2-2-2-2-2-2-2--------|
     P.M. . . . . . . . . . . . . . . . . . . . . . . . . . . . . . . .

e|----------------------------------------|
B|----------------------------------------|
G|---3-3-3-3-3-3-3-3-3-3-3-3-3-3-3-3------|
D|----------------------------------------|
A|---4-4-4-4-4-4-4-4-4-4-4-4-4-4-4-4------|
E|---2-2-2-2-2-2-2-2-2-2-2-2-2-2-2-2------|
     P.M. . . . . . . . . . . . . . .


Chorus:

e|-------------------------------------------------------|
B|-------------------------------------------------------|
G|----8--8----11--11-----6--6----8--8------4--4----------|
D|-------------------------------------------------------|
A|----9--9----12--12-----7--7----9--9------5--5----------|
E|----7--7----10--10-----5--5----7--7------3--3----------|


Bridge:

e|-------0-0-0-0-0-0-----0-0-0-0-0-0--------3-3-----3-----3-3-----------|
B|-------0-0-0-0-3-0-----0-0-0-0-3-0--------0-----3-0-----0-0---3-------|
G|---1-1-1-1-1-1-1-1-1-1-1-1-1-1-1-1--------0-0-0-0-0-----0-0-0-0-0-0---|
D|---2-2-2-2-2-2-2-2-2-2-2-2-2-2-2-2--------0-0-0-0-0-----0-0-0-0-0-0---|
A|---2-2-2-2-2-2-2-2-2-2-2-2-2-2-2-2----2-2-2-2-2-2-2-2-2-2-2-2-2-2-2---|
E|---0-0-0-0-0-0-0-0-0-0-0-0-0-0-0-0----3-3-3-3-3-3-3-3-3-3-3-3-3-3-3---|

e|----------------------------------------|
B|----------------------------------------|
G|---3-3-3-3-3-3-3-3-3-3-3-3-3-3-3-3------|
D|----------------------------------------|
A|---4-4-4-4-4-4-4-4-4-4-4-4-4-4-4-4------|
E|---2-2-2-2-2-2-2-2-2-2-2-2-2-2-2-2------|


Outro:

e|-----------------------------------------------------|
B|-----------------------------------------------------|
G|----8--8----11--11-----13----15------6--6--7--6------|
D|-----------------------------------------------------|
A|----9--9----12--12-----14----16------7--7--8--5------|
E|----7--7----10--10-----12----14------5--5--6--7------|




Parts in order:

Intro

Verse 1:
All the deer they follow me
They all know we're not enemies
We share more than you'd ever think
Two species pushed over the brink

Pre-Chorus:
If all these words were real
If all these words were real
There'd be more

Chorus

Verse 2:
Cleverness has reached its prime
This is all a terrible sign
Deer don't care for technology
Just so we're clear, really, honestly

Pre-Chorus:
If all these words were real
If all these words were real
There'd be more

Chorus

Bridge

Chorus

Verse 3:
Safe to say I'm ambivalent
Even if my thoughts are fully spent
Everyone moves around in packs
They could be friends or just an act

Chorus

Outro
Tap to rate this tab
# A B C D E F G H I J K L M N O P Q R S T U V W X Y Z