Song name
# A B C D E F G H I J K L M N O P Q R S T U V W X Y Z

The Pack Ad - They Know Me tab

-------------------------------------------------------------------------------
                             THEY KNOW ME - The Pack A.D.
-------------------------------------------------------------------------------
Tabbed by: goatsandmonkeys
E-mail: rsjhenwood@hotmail.com

Tuning: Standard

Very simple, mellow and hypnotic tune (There are really only 2 parts).
The whole thing is finger-picked. 
Listen to the song to get the timing and stuff right. Enjoy.
 

Intro/Verses/Outro: 

e|---------------------------------------------------------------------------|
B|---------------------------------------------------------------------------|
G|---------------------------------------------------------------------------|
D|-----0---0---0---0---0---0---0---0----0---0---0---0---0---0---0---0---0----|
A|---------------3---------------3----------------3-------------------3------|
E|---3---3---3-------3---3---3--------3---3---3-------3---3---3---3----------|

Chorus:

e|---------------------------------------------------------------------------|
B|---------------------------------------------------------------------------|
G|---------------------------------------------------------------------------|
D|-----0---0---0---0----0---0---0---0---0---0---0---0---0---0---0---0--------|
A|------------------------------------------------3--------------------------|
E|---6---6---6---6----5---5---5---5---3---3---3--------3---3---3---3---------|

The final bar of the song ends on

e|-------|
B|-------|
G|-------|
D|-------|
A|-------|
E|---3---|



Parts in order:

Intro

Verse 1:
Every animal is my friend 
Every animal is my friend

Chorus: 
I've been here before
I've been here before

Verse 2:
People are the worst of all
People are the worst of all

Chorus:
I've been here before
I've been here before

Verse 3:
I'd never hurt an animal
(I'd never hurt an animal)

Chorus:
But if you lay a hand
(If you lay a hand)
If you lay a hand
(If you lay a hand)

Verse 4:
Every animal is my friend
(Every animal is my friend)
Every animal is my friend
Every animal is my friend

Chorus:
I've been here before
(Every animal is my friend)
I've been here before
I've been here before
I've been here before

Outro:
I've been here before
 
Tap to rate this tab
 
# A B C D E F G H I J K L M N O P Q R S T U V W X Y Z