Song name
# A B C D E F G H I J K L M N O P Q R S T U V W X Y Z

The Pack Ad - Build tab

-------------------------------------------------------------------------------
                             Build - The Pack AD
-------------------------------------------------------------------------------
Tabbed by: Nate
E-mail: nlang52390@gmail.com

This was done by ear so I cannot guarantee that it's 100%. Feel free to email me
with any questions or corrections.

Tuning: standard EADGBE

e|-3-3-3-3-3-3-3-3-|
B|-3-3-3-3-3-3-3-3-|
G|-----------------|
D|-----------------|            (6x)
A|-----------------|
E|-----------------|

e|-3-3-3-3-3-3-3-3------------|
B|-3-3-3-3-3-3-3-3------------|
G|-3-3-3-3-3-3-3-3------------|
D|----------------------------|        (3x)
A|----------------------------|
E|----------------------------|

then: (this is likely done with 2 guitars, one joining in and playing the the low F as 
whole notes, but I transcribed it for one)

e|-3-3-3-3-3-3-3-3-----|
B|-3-3-3-3-3-3-3-3-----|
G|-3-3-3-3-3-3-3-3-----|
D|-3---3---3---3-------|
A|---------------------|
E|---------------------|

main riff: (This sounds best when fingerpicked and palm muted. Occasionally they won't 
palm mute the two note chord to start a measure - listen to the song for the exact measures.)
e|-----------------------------------------|
B|-----------------------------------------|
G|-----------------------------------------|
D|-----------------------------------------|      (4x)   Low E version
A|-2---------------2---------2p0-----------|
E|-0--0-3-5-0h3p0--0--0-3-5----------------|

e|---------------------------------|
B|---------------------------------|
G|---------------------------------|      (1x)  then play the low E version of the riff 1 time,
D|-2----------------2---------2p0--|         this A version once w/out as many palm mutes
A|-0--0-3-5-0h3p0--0--0-3-5--------|        then E again before the chorus
E|---------------------------------|

chorus:
e|------------------|
B|------------------|
G|-2-2--s-9-9-9-----|    (4x)
D|-2-2--s-9-9-9-----|
A|-0-0--s-7-7-7-----|
E|------------------|

e|----------------------|
B|----------------------|
G|-4-4--s-7-7-7---------|     (2x)
D|-4-4--s-7-7-7---------|
A|-2-2--s-5-5-5---------|
E|----------------------|

e|---------------|--------------|----------------|
B|---------------|--------------|----------------|
G|-2-2--s-9-9-9-|-2-2--s-7-7-7-|-2-2--5-5--------|
D|-2-2--s-9-9-9-|-2-2--s-7-7-7-|-2-2--5-5--------|
A|-0-0--s-7-7-7-|-0-0--s-5-5-5-|-0-0--3-3--------|
E|---------------|--------------|----------------|

And that's it. Repeat the verse and chorus sections twice more to play the whole song.
Enjoy!

************************************

| s   slide down
| h   hammer-on
| p   pull-off
************************************
Tap to rate this tab
# A B C D E F G H I J K L M N O P Q R S T U V W X Y Z