Song name
# A B C D E F G H I J K L M N O P Q R S T U V W X Y Z

The Pack After Death - Making Gestures tab

Making Gestures - Packing The A.D.

Here's the full song. This is my first song tabbed so please rate.

| |--------3-------1---------6-xx-8--8--8--8----|
|o|--------3-------1---------6-xx-8--8--8--8----|
| |--------4-------2---------7-xx-9--9--9--9----|
| |--------5--x-x--3--x-x--8-8-xx-10-10-10-10---|
|o|--------5--x-x--3--x-x--8-8-xx-10-10-10-10---|
| |---1/3--3--x-x--1--x-x--6-6-xx-8--8--8--8----|

|---3-------1---------------| |
|---3-------1---------------|o|
|---4-------2-------5-3-----| |   X2
|---5--x-x--3--x-x--5-3-5---| |
|---5--x-x--3--x-x--3-1-5---|o|
|---3--x-x--1--x-x------3---| |

|--------3-------1---------6-xx-8--8--8--8----|
|--------3-------1---------6-xx-8--8--8--8----|
|--------4-------2---------7-xx-9--9--9--9----|
|--------5--x-x--3--x-x--8-8-xx-10-10-10-10---|
|--------5--x-x--3--x-x--8-8-xx-10-10-10-10---|
|---1/3--3--x-x--1--x-x--6-6-xx-8--8--8--8----|

|---3-------1-----------------------|
|---3-------1-----------------------|
|---4-------2-------5-3-----5-3-----|
|---5--x-x--3--x-x--5-3-5---5-3-5---|
|---5--x-x--3--x-x--3-1-5---3-1-5---|
|---3--x-x--1--x-x------3-------3---|

|--------3-------1---------6-xx-8--8--8--8----|
|--------3-------1---------6-xx-8--8--8--8----|
|--------4-------2---------7-xx-9--9--9--9----|
|--------5--x-x--3--x-x--8-8-xx-10-10-10-10---|
|--------5--x-x--3--x-x--8-8-xx-10-10-10-10---|
|---1/3--3--x-x--1--x-x--6-6-xx-8--8--8--8----|

|---3-------1---------------|
|---3-------1---------------|
|---4-------2-------5-3-----|
|---5--x-x--3--x-x--5-3-5---|
|---5--x-x--3--x-x--3-1-5---|
|---3--x-x--1--x-x------3---|

|--------3-------1---------6-xx-8--8--8--8----|
|--------3-------1---------6-xx-8--8--8--8----|
|--------4-------2---------7-xx-9--9--9--9----|
|--------5--x-x--3--x-x--8-8-xx-10-10-10-10---|
|--------5--x-x--3--x-x--8-8-xx-10-10-10-10---|
|---1/3--3--x-x--1--x-x--6-6-xx-8--8--8--8----|

|---3-------1-------------------------------|
|---3-------1-------------------------------|
|---4-------2-------5-3-----5-3-----5-3-----|
|---5--x-x--3--x-x--5-3-5---5-3-5---5-3-5---|
|---5--x-x--3--x-x--3-1-5---3-1-5---3-1-5---|
|---3--x-x--1--x-x------3-------3-------3---|

| |-------------------| |
|o|-------------------|o|
| |---5-3---5b6-5-----| |   X3    NOTE: These two riffs are played  
| |---5-3-5-------5---| |         slightly differently throughout the
|o|---3-1-5-----------|o|         song
| |-------3-----------| |

| |------------------| |
|o|------------------|o|
| |---5-3----5/9-9---| |   X2
| |---5-3-3--5/9-9---| |
|o|---3-1-3--3/7-7---|o|
| |-------5----------| |

|-------------------|
|-------------------|
|---5-3---5b6-5-----|
|---5-3-5-------5---|
|---3-1-5-----------|
|-------3-----------|

|------------------|
|---5-3----5/9-9---|
|---5-3----5/9-9---|
|---3-1-5--3/7-7---|
|-------5----------|
|-------3----------|

| |-------------------| |
|o|-------------------|o|
| |---5-3---5b6-5-----| |   X3
| |---5-3-5-------5---| |
|o|---3-1-5-----------|o|
| |-------3-----------| |

|---------------------------|
|---------------------------|
|---5-3-----5-3-----5-3-----|
|---5-3-5---5-3-5---5-3-5---|
|---3-1-5---3-1-5---3-1-5---|
|-------3-------3-------3---|

|--------3-------1---------6-xx-8--8--8--8----|
|--------3-------1---------6-xx-8--8--8--8----|
|--------4-------2---------7-xx-9--9--9--9----|
|--------5--x-x--3--x-x--8-8-xx-10-10-10-10---|
|--------5--x-x--3--x-x--8-8-xx-10-10-10-10---|
|---1/3--3--x-x--1--x-x--6-6-xx-8--8--8--8----|

|---3-------1-----------------------|
|---3-------1-----------------------|
|---4-------2-------5-3-----5-3-----|
|---5--x-x--3--x-x--5-3-5---5-3-5---|
|---5--x-x--3--x-x--3-1-5---3-1-5---|
|---3--x-x--1--x-x------3-------3---|

|--------3-------1---------6-xx-8--8--8--8----|
|--------3-------1---------6-xx-8--8--8--8----|
|--------4-------2---------7-xx-9--9--9--9----|
|--------5--x-x--3--x-x--8-8-xx-10-10-10-10---|
|--------5--x-x--3--x-x--8-8-xx-10-10-10-10---|
|---1/3--3--x-x--1--x-x--6-6-xx-8--8--8--8----|

|---3-------1---------------|
|---3-------1---------------|
|---4-------2-------5-3-----|
|---5--x-x--3--x-x--5-3-5---|
|---5--x-x--3--x-x--3-1-5---|
|---3--x-x--1--x-x------3---|

|--------3-------1---------6-xx-8--8--8--8----|
|--------3-------1---------6-xx-8--8--8--8----|
|--------4-------2---------7-xx-9--9--9--9----|
|--------5--x-x--3--x-x--8-8-xx-10-10-10-10---|
|--------5--x-x--3--x-x--8-8-xx-10-10-10-10---|
|---1/3--3--x-x--1--x-x--6-6-xx-8--8--8--8----|

|---3-------1-------------------------------|
|---3-------1-------------------------------|
|---4-------2-------5-3-----5-3-----5-3-----|
|---5--x-x--3--x-x--5-3-5---5-3-5---5-3-5---|
|---5--x-x--3--x-x--3-1-5---3-1-5---3-1-5---|
|---3--x-x--1--x-x------3-------3-------3---|

| |-------------------| |
|o|-------------------|o|
| |---5-3---5b6-5-----| |   X4
| |---5-3-5-------5---| |
|o|---3-1-5-----------|o|
| |-------3-----------| |

| |------------------| |
|o|------------------|o|
| |---5-3----5/9-9---| |   X2
| |---5-3-3--5/9-9---| |
|o|---3-1-3--3/7-7---|o|
| |-------5----------| |

| |-------------------| |
|o|-------------------|o|
| |---5-3---5b6-5-----| |   X7
| |---5-3-5-------5---| |
|o|---3-1-5-----------|o|
| |-------3-----------| |

|---------------------------|
|---------------------------|
|---5-3-----5-3-----5-3-----|
|---5-3-5---5-3-5---5-3-5---|
|---3-1-5---3-1-5---3-1-5---|
|-------3-------3-------3---|

|--------------------------|
|--------------------------|
|--------------------------|   X3
|-----8--------5-------5---|
|-----8--------5-------5---|
|---3/6--------3-----1/3---|

|--------------------|
|--------------------|
|--------------------|
|-----8----------5---|
|-----8----------5---|
|---3/6--------6\3---|

|--------3-------1---------6-xx-8--8--8--8----|
|--------3-------1---------6-xx-8--8--8--8----|
|--------4-------2---------7-xx-9--9--9--9----|
|--------5--x-x--3--x-x--8-8-xx-10-10-10-10---|
|--------5--x-x--3--x-x--8-8-xx-10-10-10-10---|
|---1/3--3--x-x--1--x-x--6-6-xx-8--8--8--8----|

|---3-------1---------------|
|---3-------1---------------|
|---4-------2-------5-3-----|
|---5--x-x--3--x-x--5-3-5---|
|---5--x-x--3--x-x--3-1-5---|
|---3--x-x--1--x-x------3---|

|--------3-------1---------6-xx-8--8--8--8----|
|--------3-------1---------6-xx-8--8--8--8----|
|--------4-------2---------7-xx-9--9--9--9----|
|--------5--x-x--3--x-x--8-8-xx-10-10-10-10---|
|--------5--x-x--3--x-x--8-8-xx-10-10-10-10---|
|---1/3--3--x-x--1--x-x--6-6-xx-8--8--8--8----|

|---3-------1-----------------------|
|---3-------1-----------------------|
|---4-------2-------5-3-----5-3-----|
|---5--x-x--3--x-x--5-3-5---5-3-5---|
|---5--x-x--3--x-x--3-1-5---3-1-5---|
|---3--x-x--1--x-x------3-------3---|

|--------3-------1---------6-xx-8--8--8--8----|
|--------3-------1---------6-xx-8--8--8--8----|
|--------4-------2---------7-xx-9--9--9--9----|
|--------5--x-x--3--x-x--8-8-xx-10-10-10-10---|
|--------5--x-x--3--x-x--8-8-xx-10-10-10-10---|
|---1/3--3--x-x--1--x-x--6-6-xx-8--8--8--8----|

|---3-------1---------------|
|---3-------1---------------|
|---4-------2-------5-3-----|
|---5--x-x--3--x-x--5-3-5---|
|---5--x-x--3--x-x--3-1-5---|
|---3--x-x--1--x-x------3---|

|--------3-------1---------6-xx-8--8--8--8----|
|--------3-------1---------6-xx-8--8--8--8----|
|--------4-------2---------7-xx-9--9--9--9----|
|--------5--x-x--3--x-x--8-8-xx-10-10-10-10---|
|--------5--x-x--3--x-x--8-8-xx-10-10-10-10---|
|---1/3--3--x-x--1--x-x--6-6-xx-8--8--8--8----|

|---3-------1-------------------------------|
|---3-------1-------------------------------|
|---4-------2-------5-3-----5-3-----5-3-----|
|---5--x-x--3--x-x--5-3-5---5-3-5---5-3-5---|
|---5--x-x--3--x-x--3-1-5---3-1-5---3-1-5---|
|---3--x-x--1--x-x------3-------3-------3---|

| |-------------------| |
|o|-------------------|o|
| |---5-3---5b6-5-----| |   X4
| |---5-3-5-------5---| |
|o|---3-1-5-----------|o|
| |-------3-----------| |

|------------------|
|------------------|
|---5-3----5/9-9---|
|---5-3-3--5/9-9---|
|---3-1-3--3/7-7---|
|-------5----------|

|-------------------|
|-------------------|
|---5-3---5b6-5-----|
|---5-3-5-------5---|
|---3-1-5-----------|
|-------3-----------|

|------------------|
|------------------|
|---5-3----5/9-9---|
|---5-3-3--5/9-9---|
|---3-1-3--3/7-7---|
|-------5----------|

|-----------------------------------|
|-----------------------------------|
|---5-3-----5-3-----5-3-----1-3-----|
|---5-3-5---5-3-5---5-3-5---1-3-5---|
|---3-1-5---3-1-5---3-1-5---3-1-5---|
|-------3-------3-------3-------3---|

Any Questions e-mail me at:

love_classic_rock@hotmail.com
Tap to rate this tab
# A B C D E F G H I J K L M N O P Q R S T U V W X Y Z