Song name
# A B C D E F G H I J K L M N O P Q R S T U V W X Y Z

The Pack - Booty Bounce Bopper tab

-------------------------------------------------------------------------------
	           Booty Bounce Bopper - The Pack
-------------------------------------------------------------------------------
Tabbed by:Sound Mind
Email:kagenecros@hotmail.com

Tuning:Standard

e|---------------------------------------------------------------------------|
B|12--------------12-------------12--------------12--------------------------|
G|---11-12-11~-------11-12-11-------11-12-11~-------11-12-11-----------------|
D|---------------------------------------------------------------------------|
A|---------------------------------------------------------------------------|
E|---------------------------------------------------------------------------|



e|--------------------------------|
B|--------------------------------|
G|12--11--------------12--11------|
D|----------14------------------14|
A|--------------------------------|
E|--------------------------------|

| /  slide up
| \  slide down
| h  hammer-on
| p  pull-off
| ~  vibrato
| +  harmonic
| x  Mute note
===============================================================================
Tap to rate this tab
# A B C D E F G H I J K L M N O P Q R S T U V W X Y Z