Song name
# A B C D E F G H I J K L M N O P Q R S T U V W X Y Z

The Paddingtons - Tommys Disease tab

Intro

Guitar 1
e|-----------------------------------------------------------------|
B|-----------------------------------------------------------------|
G|-0-0-0-0-0-0-0-0-0-0-0-------------------------------------------|
D|--5-5-5-5-5-5-5-5-5-5--------------------------------------------|
A|-----------------------------------------------------------------|
E|-----------------------------------------------------------------|


Guitar 2
   G   D   Em
e|-----------------------------------------------------------------|
B|-12------8-------------------------------------------------------|
G|-12--11--9-------------------------------------------------------|
D|-12--12--9-------------------------------------------------------|
A|-10--12--7-------------------------------------------------------|
E|-----10----------------------------------------------------------|



Verse

e|-----------------------------------------------------------------|
B|-----------------x-x-8--x-x-8--x-x-8-----------------------------|
G|-12------11------x-x-9--x-x-9--x-x-9-----------------------------|
D|-12-(x8)-12-(x8)-x-x-9--x-x-9--x-x-9-----------------------------|
A|-10------12------x-x-7--x-x-7--x-x-7-----------------------------|
E|---------10------------------------------------------------------|



Then:

e|-----------------------------------------------------------------|
B|-12------8-----12--------------8---------------------------------|
G|-12--11--9-----12--11------9-----9---9---------------------------|
D|-12--12--9-----12--12----9---9-----9-----------------------------|
A|-10--12--7-----10--12--7-----------------------------------------|
E|-----10------------10--------------------------------------------|


Back to the verse:

e|-----------------------------------------------------------------|
B|-----------------x-x-8--x-x-8--x-x-8-----------------------------|
G|-12------11------x-x-9--x-x-9--x-x-9-----------------------------|
D|-12-(x8)-12-(x8)-x-x-9--x-x-9--x-x-9-----------------------------|
A|-10------12------x-x-7--x-x-7--x-x-7-----------------------------|
E|---------10------------------------------------------------------|


Next:

   D  A  D  A  D  A  G  A
e|-----------------------------------------------------------------|
B|-7-----7-----7---------------------------------------------------|
G|-7--6--7--6--7--6--4--6------------------------------------------|
D|-7--7--7--7--7--7--5--7------------------------------------------|
A|-5--7--5--7--5--7--5--7------------------------------------------|
E|----5-----5-----5--3--5------------------------------------------|


Then:

e|-----------------------------------------------------------------|
B|-12------8-----12--------------8---------------------------------|
G|-12--11--9-----12--11------9-----9---9---------------------------|
D|-12--12--9-----12--12----9---9-----9-----------------------------|
A|-10--12--7-----10--12--7-----------------------------------------|
E|-----10------------10--------------------------------------------|


Back to the verse:

e|-----------------------------------------------------------------|
B|-----------------x-x-8--x-x-8--x-x-8-----------------------------|
G|-12------11------x-x-9--x-x-9--x-x-9-----------------------------|
D|-12-(x8)-12-(x8)-x-x-9--x-x-9--x-x-9-----------------------------|
A|-10------12------x-x-7--x-x-7--x-x-7-----------------------------|
E|---------10------------------------------------------------------|


"You'll never know..."

   D  A  D  A  D  A  G  A
e|-----------------------------------------------------------------|
B|-7-----7-----7---------------------------------------------------|
G|-7--6--7--6--7--6--4--6------------------------------------------|
D|-7--7--7--7--7--7--5--7------------------------------------------|
A|-5--7--5--7--5--7--5--7------------------------------------------|
E|----5-----5-----5--3--5------------------------------------------|

The back to this for 2 times:

e|-----------------------------------------------------------------|
B|-12------8-------------------------------------------------------|
G|-12--11--9-------------------------------------------------------|
D|-12--12--9-------------------------------------------------------|
A|-10--12--7-------------------------------------------------------|
E|-----10----------------------------------------------------------|

Play this until the end:

e|-----------------------------------------------------------------|
B|-7-----7-----7---------------------------------------------------|
G|-7--6--7--6--7--6--4--6------------------------------------------|
D|-7--7--7--7--7--7--5--7------------------------------------------|
A|-5--7--5--7--5--7--5--7------------------------------------------|
E|----5-----5-----5--3--5------------------------------------------|

Finish song on a D
Tap to rate this tab
 
# A B C D E F G H I J K L M N O P Q R S T U V W X Y Z