Song name
# A B C D E F G H I J K L M N O P Q R S T U V W X Y Z

The Pains Of Being Pure At Heart - Everything With You tab

First Tab, its pretty simple. I'm working on the chords

e|----------------------------------------------------------------------------------|
B|--------------12-12-12-12-12-10-9-7-9---10-9-7---9-10-9-7---7-9-7---------7-------|
G|---8-9-11-9-----------------------------------------------9---------9-8-9---9-----|
D|-9--------------------------------------------------------------------------------|
A|----------------------------------------------------------------------------------|
E|----------------------------------------------------------------------------------|


e|-----------------------------------------------------------------12-|
B|---12-12-12-12-12-10-9-7-9---10-9-7---9-10-9-7---7-9-7----9-10-12---|
G|-----------------------------------------------9--------------------|
D|--------------------------------------------------------------------|
A|--------------------------------------------------------------------|
E|--------------------------------------------------------------------|
Tap to rate this tab
 
# A B C D E F G H I J K L M N O P Q R S T U V W X Y Z