Guitaretab - guitar tabs
Song name
# A B C D E F G H I J K L M N O P Q R S T U V W X Y Z

The Pains Of Being Pure At Heart - The Pains Of Being Pure At Heart tab

-------------------------------------------------------------------------------
     The Pains Of Being Pure At Heart  The Pains Of Being Pure At Heart
-------------------------------------------------------------------------------
Tabbed by: julian
Email: julianprott@web.de

Tuning: Standard  EADGBe

So here are all tabs to the pains of being pure at heart album!
They are all made by me! ;)  
If there are some weird chords used in a song Ive made some sort of 
chord-diagram at the beginning. If not, or otherwise indicated, 
all chords are played open. The guitarist uses a capo on the second fret 
on almost all songs. I think except the first one where is no capo. 
If there is a solo or something like that its alsways relative to the capo. 
I think everything is quite correct, but if you have any corrections, 
send them ;) Have fun!

1. contender
2. come saturday
3. young adult friction
4. this love is fucking right
5. the tenture itch
6. stay alive
7. everything with you
8. a teenager in love
9. hey paul
10.gentle sons


1. contender

intro:
   D                 G     
e|-2--2-2-0-2--2-2-0-3--3-3-0-3--3-3-0---------------------------------------|
B|-3--3-3-3-3--3-3-3-0--0-0-0-3--0-0-0---------------------------------------|
G|-2--2-2-2-2--2-2-2-0--0-0-0-0--0-0-0----x2---------------------------------|
D|-0--0-0-0-0--0-0-0-0--0-0-0-0--0-0-0---------------------------------------|
A|-------------------2--2-2-2-2--2-2-2---------------------------------------|
E|-------------------3--3-3-3-3--3-3-3---------------------------------------|

D
look what youve done, look what youve done 
            G
what do you have now?
D                  
things that never come ...
              G
is it time to come down?

       A
at the back of a crowded scene

you saw the boys in white sing
         G      
"im a pretender"
                                     D            G  
but you never were, you never were a contender, a contender

D
i heard your same old tune, singing city sins
                  G
like you were the first one
D
gave up books for film, gave up film for time
                G   
now that you've got none

       A
at the back of a crowded scene

you saw the boys in white sing
         G      
"im a pretender"
       A
at the back of a crowded scene

you saw the boys in white sing
  G      
"im a pretender"
                                     D            G  
but you never were, you never were a contender, a contender
                 D        
you never were a contender
                 G          D      
you never were a contender
 



2. come saturday

capo 2

intro:  D  G Em  x3
        D  G   
When you do the move from G to Em you can do some kind of G/F#

D                         G       Em 
i can't stand to see your picture
D                    G        Em  
on the dress where i left you
D 
another sunny day
G          Em       D     G
and you're 80 miles away, tuesday

A        Em               G     
but come saturday, you'll come to stay
       D                  A
you'll come to sway in my arms
    Em                 G              
who cares if there's a party somewhere
D                A
we're gonna stay in
     Em               G
come saturday, you'll come to say
D                A
maybe there's no harm
     Em            G
in a wasted summer with no drummer,
A                D  G Em  D  G Em  
we're gonna stay in

D                     G       Em
i could stand to be a fixture
D                 G       Em
in a faded family picture
D                        G 
but i can't see into the sunset
      Em                  D         G  
all i know is that you're perfect right now

A        Em               G     
but come saturday, you'll come to stay
       D                  A
you'll come to sway in my arms
    Em                 G              
who cares if there's a party somewhere
D                A
we're gonna stay in
     Em               G
come saturday, you'll come to say
D                A
maybe there's no harm
     Em            G
in a wasted summer with no drummer,
A                D  
we're gonna stay in

solo:
e|---------------------------------------------------------------------------|
B|---------------------------------------------------------------------------|
G|-2-2-22-22-22-2222-4-4-777-9---x2------------------------------------------|
D|---------------------------------------------------------------------------|
A|---------------------------------------------------------------------------|
E|---------------------------------------------------------------------------|

e|---------------------------------------------------------------------------|
B|---------------------------------------------------------------------------|
G|-12-12-11h12p11-9-7---x2-----12-12-11h12p11-9-7-4--------------------------|
D|---------------------------------------------------------------------------|
A|---------------------------------------------------------------------------|
E|---------------------------------------------------------------------------|

e|---------------------------------------------------------------------------|
B|---------------------------------------------------14----------------------|
G|-12-12-11h12p11-9-7---x2-----12-12-11h12p11-9-7-14-------------------------|
D|---------------------------------------------------------------------------|
A|---------------------------------------------------------------------------|
E|---------------------------------------------------------------------------|

A                          Em 
you don't have to write at all
                         G
you don't have to make a call
                     D                A
i know that you will come again and again
                           Em
you don't have to dress to please
                    G     
perhaps undress for me
                     A                     D  G Em  x4  D
i know that when you come we'll be staying in




3. young adult friction

capo 2

intro:  C  Am7  Fmaj7  C   x2

C                              Am7
between the stacks in the library
                           Fmaj7
not like anyone stopped to see
                       C
we came they went, our bodies spent

among the dust and the microfiche
C                     Am7
dark winters wear you down
                    Fmaj7
up again to see the dawn

in your worn sweatshirt
         C  
and your mothers old skirt
                              G
its enough to turn my studies down

             Fmaj7                 C
now that you feel, you say its not real
G            Am7  Fmaj7            intro x2  
now that you feel, you say its not real

C                               Am7
i never thought i would come of age
                     Fmaj7
let alone on a moldy page

you put your back to the spines
        C 
and you said it was fine if theres nothing really left to say
C                             Am7
youre taking toffee with your vicodin
                            Fmaj7
something sweet to forget about him
                              C    
if you go your own way i will go my own way
                            G      
and well never speak of it again
 
             Fmaj7                 C
now that you feel, you say its not real
G            Am7  Fmaj7            intro   
now that you feel, you say its not real

bridge:
e|--------------------------------------------------------------------------|
B|-12-12-12-12-12-12-12--------12-12-12-12-8-8-8----------------------------|
G|-12-12-12-12-12-12-12---x3---12-12-12-12-9-9-9----------------------------|
D|--x--x--x--x--x--x--x--------x-x-x-x-x-x-x-x-x----------------------------|
A|-10-10-10-10-10-10-10--------10-10-10-10-7-7-7----------------------------|
E|--------------------------------------------------------------------------|

e|--------------------------------------------------------------------------|
B|-10-10-10-10-10-10-10--------10-10-10-10-12-12-12-------------------------|
G|-10-10-10-10-10-10-10---x3---10-10-10-10-10-10-10-------------------------|
D|--x--x--x--x--x--x--x---------x--x--x--x--x--x--x-------------------------|
A|--8--8--8--8--8--8--8---------8--8--8--8--8--8--8-------------------------|
E|--------------------------------------------------------------------------|

e|--------------------------------------------------------------------------|
B|-12-12-12-12-12-12-12--------12-12-12-12-8-8-8----------------------------|
G|-12-12-12-12-12-12-12---x3---12-12-12-12-9-9-9----------------------------|
D|--x--x--x--x--x--x--x--------x-x-x-x-x-x-x-x-x----------------------------|
A|-10-10-10-10-10-10-10--------10-10-10-10-7-7-7----------------------------|
E|--------------------------------------------------------------------------|

e|-----------------------------8--------------------------------------------|
B|-10-10-10-10-10-10-10--------8--------------------------------------------|
G|-10-10-10-10-10-10-10---x4---9--------------------------------------------|
D|--x--x--x--x--x--x--x-------10--------------------------------------------|
A|--8--8--8--8--8--8--8-------10--------------------------------------------|
E|-----------------------------8--------------------------------------------|

e|-0-0-0-0-0-0-0-0-0-0-0-0-0-0-0-0------------------------------------------|
B|-5-5-5-5-5-5-5-5-5-5-5-5-5-3-3-3----x4------------------------------------|
G|--------------------------------------------------------------------------|
D|--------------------------------------------------------------------------|
A|--------------------------------------------------------------------------|
E|--------------------------------------------------------------------------|

dont check me out   with riff above x8

dont check me out   with intro chords x2

end with: 
   Fmaj7                        C  
e|-0-0-0-0-0-0-0--0-0-0-0-0-0-0--0-0-0-0-0-0-0--0-0-0-0-0-0-0---------------|
B|-1-1-1-1-1-1-1--1-1-1-1-1-1-1--1-1-1-1-1-1-1--1-1-1-1-1-1-1---------------|
G|-2-2-2-2-2-2-2--2-2-2-2-2-2-2--0-0-0-0-0-0-0--0-0-0-0-0-0-0---------------|
D|-3-3-3-3-3-3-3--3-3-3-3-3-3-3--2-2-2-2-2-2-2--2-2-2-2-2-2-2---------------|
A|-------------------------------3-3-3-3-3-3-3--3-3-3-3-3-3-3---------------|
E|--------------------------------------------------------------------------|




4. this love is fucking right

capo 2

chords: 
   D   G*  G  Em   A
e|-2-|-0-|-3-|-3-|-0-|
B|-3-|-3-|-3-|-3-|-2-|
G|-2-|-0-|-0-|-0-|-2-|
D|-0-|-0-|-0-|-2-|-2-|
A|---|-2-|-2-|-2-|-0-|
E|---|-3-|-3-|-0-|---|

Intro:  D  G* D  G* Em  G* Em  G*  x2

D     G*     D          G*                Em  G  Em  G 
Sweet sister, can't you find the words to say?
D    G*     D         G*                  Em  G  Em  G  
your mister, he don't treat you the right way

Em   A               D               G 
In a dark room I can see you shining bright
Em        A               D             G 
you don't have to tell me twice, it's alright
Em   A                D               G  
in a dark room we can do just what we like
Em               G         A               intro x1    
you're my sister, and this love is fucking right

D       G*      D          G*                 Em  G  Em  G 
can you go home, look your best friend in the eye?
D            G*     D      G*                   Em  G  Em  G      
No you can't go home after where you slept last night

Em   A               D               G 
In a dark room I can see you shining bright
Em        A               D             G 
you don't have to tell me twice, it's alright
Em   A                D               G  
in a dark room we can do just what we like
Em               G         A               
you're my sister, and this love is fucking right

solo:
e|---2--0-----0--------0--------2--0-----5------3-2-0-----------3-2-0--------|
B|--------3------3-------3-----------3----------------3--0------------3--0---|
G|2---------2-------2------2-2---------2-----0---------------0-------------x2|
D|---------------------------------------------------------------------------|
A|---------------------------------------------------------------------------|
E|---------------------------------------------------------------------------|

e|--------5------------------------------------------------------------------|
B|0--2-3---------------------------------------------------------------------|
G|---------------------------------------------------------------------------|
D|---------------------------------------------------------------------------|
A|---------------------------------------------------------------------------|
E|---------------------------------------------------------------------------|

Em   A               D               G 
In a dark room I can see you shining bright
Em        A               D             G 
you don't have to tell me twice, it's alright
Em   A                D               G  
in a dark room we can do just what we like
Em               G         A               D
you're my sister, and this love is fucking right




5. the tenture itch

capo 2

chords: 
   B  B7   E   A  A*
e|-0-|-0-|-0-|-0-|-0-|
B|-0-|-0-|-9-|10-|-0-|
G|-8-|-8-|-9-|-9-|-9-|
D|-9-|-7-|-9-|-9-|-7-|
A|-9-|-9-|-7-|-0-|-0-|
E|-7-|-7-|-0-|---|---|

Intro:
   B                    B7
e|----0--------0-------0---0-------------------------------------------------|
B|---------------------------------------------------------------------------|
G|---------8--------8--------------x8----------------------------------------|
D|-9-----9---9---9-------7---------------------------------------------------|
A|---------------------------------------------------------------------------|
E|---------------------------------------------------------------------------|

B                B7 B           B7
his indiscretions, you dont mind
B                   
he says your thoughts need for
B7       B                     B7
but your forms not hard to find
B                        B7 B              B7
these late night sessions, hes master still
B                      B7 B 
another lesson leaves you twisting to his will

      E        A              B  
every night he comes and goes again
      E        A              B  
every night he comes and goes again
      E        A              B  
every night he comes and goes again
           A*            B   intro
if it isnt right it isnt him

B                   B7 B                 B7 
he makes corrections, you shut the blinds
B                 
youre talking less and less,
B7      B                       B7
but the words arent hard to find
B                  B7 B              B7  
his last suggestion, it makes you ill,
B                             B7 B
still one more lesson leaves you twisting to his will

      E        A              B  
every night he comes and goes again
      E        A              B  
every night he comes and goes again
      E        A              B  
every night he comes and goes again
           A*            B   
if it isnt right it isnt him
           A*            B   
if it isnt right it isnt him

bridge:
e|-7----------------------------------7---7-7-7-7-7-7-7-7-7-7-7-------------|
B|-7----------------------------------7---9-7-9-7-9-7-10-10-9-7-------------|
G|-8--<-strum,--then-sth-like-this:---8---8-8-8-8-8-8-8-8-8-8-8---x2--------|
D|-9----------------------------------9---x-x-x-x-x-x-x-x-x-x-9-------------|
A|-9----------------------------------9---9-9-9-9-9-9-9-9-9-9-9-------------|
E|-7----------------------------------7---7-7-7-7-7-7-7-7-7-7-7-------------|
[ Tab from: http://www.guitaretab.com/t/the-pains-of-being-pure-at-heart/186773.html ]
      E        A              B  
every night he comes and goes again
      E        A              B  
every night he comes and goes again
      E        A              B  
every night he comes and goes again
           A*            B   
if it isnt right it isnt him
      E        A              B  
every night he comes and goes again
      E        A              B  
every night he comes and goes again
      E        A              B  
every night he comes and goes again
           A*            B   
if it isnt right it isnt him
           A*            B   
if it isnt right it isnt him
           A*            B    E 
if it isnt right it isnt him




6. stay alive

capo 2

intro: D  G  A  D  G  A  x2 

D       G    A             D               G           A 
come on down, the furthest reaches of your nowhere town
D             G   A              D                 G         A   
they suck you in, the black hole kids wont let you free again

G        D      A      
dont you try to shoot up the sky
   Em    
to shoot up the sky
  G          D    A    Em
tonight well stay alive
G        D      A      
dont you try to shoot up the sky
   Em    
to shoot up the sky
  G          D    Asus A  
tonight well stay alive

D        G    A            D 
when its gone, you sit and stare
          G          A
until the golden dawn
D        G  A               D                 G          A   
cant you see his arms are a hell and you wont ever leave?  

G        D      A      
dont you try to shoot up the sky
   Em    
to shoot up the sky
  G          D    A    Em
tonight well stay alive
G        D      A      
dont you try to shoot up the sky
   Em    
to shoot up the sky
  G          D    Asus A  
tonight well stay alive

bridge:
e|---------------2--2-2---------------------------0--0-----------------------|
B|-3--2-3-3--2-3-3--2-3-3--5--------3--2-3-3--2-3-2--2-----------------------|
G|-0--0-0-0--0-0-2--2-2-0--0---x3---0--0-0-0--0-0-2--2-----------------------|
D|-0--0-0-2--2-2-0--0-0-2-----------0--0-0-2--2-2-2--2-----------------------|
A|-2--2-2-2--2-2--------2-----------2--2-2-2--2-2-0--0-----------------------|
E|---------------------------------------------------------------------------|

intro x2

G        D      A      
dont you try to shoot up the sky
   Em    
to shoot up the sky
  G          D    A    Em
tonight well stay alive
G        D      A      
dont you try to shoot up the sky
   Em    
to shoot up the sky
  G          D    A    Em
tonight well stay alive

solo:
e|-----------------------------------3-2-----------5-2-0------------3-2------|
B|-----3-2--3---------3-2--3-5--3-5------5-3--5-3----------x2--end:------3---|
G|-0-2--------2---0-2--------------------------------------------------------|
D|---------------------------------------------------------------------------|
A|---------------------------------------------------------------------------|
E|---------------------------------------------------------------------------|




7. everything with you

capo 2

intro: D  A  D  A

D         A             D        A 
start off "sometimes..." now its our time
G       A
are you with me?
G       A
are you with me?
D          A     D            A
strange teenager, waiting for death at 19
G       A
are you with me?
G       A
are you with me?

         D               Em              G   A   
I'm with you and there's nothing left to do
Em          A
tell me its true
         D           Em                 G      A       
I'm with you and the stars are crashing through
Em          A
tell me its true
Em     A               D  A  D  A 
i want everything with you

D          A      D            A
now you're someone says you're no one
G       A 
are you with me?
G       A 
are you with me?
D          A     D             A
strange teenager, you'll never know death at 19
G       A 
are you with me?
G       A 
are you with me?

         D               Em              G   A   
I'm with you and there's nothing left to do
Em          A
tell me its true
         D           Em                 G      A       
I'm with you and the stars are crashing through
Em          A
tell me its true
Em     A               
i want everything with you

G  G/F#m  Em   x3   G  G/F#m  A

solo:
e|---------------------------------------------------------------------------|
B|-----------10-10-10-10-10-8-7-5-7--8-7-5--7-8-7-5-3-5-7-5------------------|
G|---6-7-9-7-----------------------------------------------------------------|
D|-7-------------------------------------------------------------------------|
A|---------------------------------------------------------------------------|
E|---------------------------------------------------------------------------|

e|--------------------------------------------------------------------10-----|
B|-----------10-10-10-10-10-8-7-5-7--8-7-5--7-8-7-5-3-5-7-5--5-7-8-10--------|
G|-7-6-7-9-7-----------------------------------------------------------------|
D|---------------------------------------------------------------------------|
A|---------------------------------------------------------------------------|
E|---------------------------------------------------------------------------|

D              Em              G   A   
   And there's nothing left to do
Em          A
tell me its true
         D           Em                 G      A       
I'm with you and the stars are crashing through
Em          A
tell me its true
Em          A
tell me its true
G                    
i want everything
A                      D
i want everything with you




8. teenager in love

capo 2

chords:
Cmaj7 C Asus2 A Dsus2 Dm Fmaj7 F  G   Em
e|-0-|-0-|-0-|-0-|-0-|-1-|-0-|-1-|-3-|-0-|
B|-0-|-1-|-0-|-1-|-3-|-3-|-1-|-1-|-0-|-0-|
G|-0-|-0-|-2-|-2-|-2-|-2-|-2-|-2-|-0-|-0-|
D|-2-|-2-|-2-|-2-|-0-|-0-|-3-|-3-|-0-|-2-|
A|-3-|-3-|-0-|-0-|---|---|---|---|-2-|-2-|
E|---|---|---|---|---|---|---|---|-3-|-0-|

intro: Cmaj7 C   Asus2 Am   Dsus2 Dm   Fmaj7 F   x2

I will only write the simple chords, but somestimes you have to play that
structure with Cmaj7 C   Asus2 Am... and so on..

C            Am    Dm            
now you go unseen, perfect youll stay hidden
      F                               C 
and i can dream of things youll never see
    Am          Dm 
alli please, if you are braver than the rest,
       F                                   G  
theres little left that could dispute your claim

    Am                F
and when youd finally gone
   Em                 Am        F 
he tells me "you were dead all along"
       G         Am            F
he was wrong, he hadnt lived a day
    Em                 Am                      
the way you lived your final days
  F                                intro x2
a teenager in love with christ and heroin

C            Am  
now you feel ashamed
    Dm                      
but he feels nothing of the kind
   F                                  C     Am
he talks of things he wouldnt mind to try sometime,
    Dm 
but youve got little left to give
    F                              G
his touch is not athing youll ever miss

    Am                F
and when youd finally gone
   Em                 Am        F 
he tells me "you were dead all along"
       G         Am            F
he was wrong, he hadnt lived a day
    Em                 Am                      
the way you lived your final days
  F                                intro x2
a teenager in love with christ and heroin

G                 Em    
and if you made a stand,
   Am         G           Dm 
id stand with you til the end
    F   
but you dont need a friend when youre
  Fm                               intro x2
a teenager in love with christ and heroin


Again the intro x2 but with more of those lift offs, youll get it ;)




9. hey paul

capo 2

intro: D A  G A   x4

    D              A        G           A        D           A          G           
you say youve been waiting, waiting for someone, waiting for some song, waiting
      A             D          A           G           A            D           A
since when you were born for a moment when everythings alright, and everythings all
          G           A       D
white but i just cant wait anymore

    G                   A                  D          G              A  
hey paul where have you gone, i wanna come along, hey paul what went so wrong?
          intro x2 
what went so wrong?

     D         A      G            A        D           A              G           
have you gone away or been left behind, you know that i dont mind, you know that
      A            D           A                G          A              D 
youre my kind, cuz when i hear "churchbells" or when i see fireflies, you know that 
  A         G            A            D                    
i dont lie, one of these days youll belong

    G                   A                  D          G              A  
hey paul where have you gone, i wanna come along, hey paul what went so wrong?
D   G                   A                  D          G              A  
hey paul where have you gone, i wanna come along, hey paul what went so wrong?
          G          G    A   
what went so wrong?

D   G                   A                  D          G              A  
hey paul where have you gone, i wanna come along, hey paul where have you gone?
              D       G      A                 D       G      A  
i wanna come alooooooooooooooong i wanna come alooooooooooooooong   
              D
i wanna come along




10. gentle sons

capo2

intro:  A   D  G  A   D  G  A 

       D                     G              A    
if you shut out the sun, the day will never come
       D             
if you turn on your side,
     G                 A
this night wont come undone
D       G              A        G   
now you say you need a friend,
            A      D
but we cant live again

                         G
monday morning comes too fast,
                             A
you stumble down the diamond path
                            G  
and every step will be your last
D                             G
the sunken eyes you just cant see
                          A 
remind me how youll never leave
                             G      A
and every step could be your last 

        D                  
now you stand in the rain saying
G                       A  
"nothing has changed at all"
         D                         
save the lines in your eyes
       G                  A       
that remind me of summers fall
   D       G              A         G
oh no, you say you need a friend,
            A      D 
but we cant live again

                         G
monday morning comes too fast,
                             A
you stumble down the diamond path
                            G  
and every step will be your last
D                             G
the sunken eyes you just cant see
                          A 
remind me how youll never leave
                             G      
and every step could be your last

solo:                                                                    ___ 
e|-----------------------------------------------------------------------|  |
B|-14-14-14-14-14-14-14-14-14-14-14-14-14-14-14-14-----------------------|  |
G|--x--x--x--x--x--x--x--x--x--x--x--x--x--x--x--x-----------------------|  |
D|-11-11-11-11-11-11-11-11-11-11-11-11-11-11-11-11-----------------------|  |
A|-----------------------------------------------------------------------|  |
E|-----------------------------------------------------------------------|  |
                                                                           x3
e|----------17-17-17-14-14----------17-17-17-14-14-----------------------|  |
B|-15-15-15--x--x--x--x--x-15-15-15--x--x--x--x--x-----------------------|  |
G|--x--x--x-14-14-14-11-11--x--x--x-14-14-14-11-11-----------------------|  |
D|-12-12-12----------------12-12-12--------------------------------------|  |
A|-----------------------------------------------------------------------|  |
E|-----------------------------------------------------------------------|__|
                                                                             
|---------------------------------------------------------------------------|
B|-14-14-14-14-14-14-14-14-14-14-14-14-14-14-14-14--------------------------|
G|--x--x--x--x--x--x--x--x--x--x--x--x--x--x--x--x--------------------------|
D|-11-11-11-11-11-11-11-11-11-11-11-11-11-11-11-11--------------------------|
A|--------------------------------------------------------------------------|
E|--------------------------------------------------------------------------|
                                                                                
e|--------------------------------------------------------------------------|
B|-15-15-15-15-15-15-15-15-17-17-17-17-17-17-17-17-15-----------------------|
G|--x--x--x--x--x--x--x--x--x--x--x--x--x--x--x--x--x-----------------------|
D|-12-12-12-15-12-12-12-12-14-14-14-14-14-14-14-14-12-----------------------|
A|--------------------------------------------------------------------------|
E|--------------------------------------------------------------------------|

D                        G
monday morning comes too fast,
                             A
you stumble down the diamond path
                            G  
and every step will be your last
D                             G
the sunken eyes you just cant see
e|--------------------------------------------------------------------------|
B|-15-------------------------15--------------now these notes come in,------|
G|--x--------------------------x--------------lots of feedback used!--------|
D|-12-------------------------12--------------and play around with your-----|
A|--------------------------------------------whammy bar--------------------|
E|--------------------------------------------------------------------------|
                          A 
remind me how youll never leave
e|--------------------------------------------------------------------------|
B|------------------------17------------------------------------------------|
G|-------------------------x------------------------------------------------|
D|------------------------14------------------------------------------------|
A|--------------------------------------------------------------------------|
E|--------------------------------------------------------------------------|
                            G      
and every step could be your last 
e|--------------------------------------------------------------------------|
B|--------------------------15----------------------------------------------|
G|---------------------------x----------------------------------------------|
D|--------------------------12----------------------------------------------|
A|--------------------------------------------------------------------------|
E|--------------------------------------------------------------------------|

This is the order how the following notes are played,
try to figure out when exactly, feedback gets even more, and again whammy bar
e|--------------------------------------------------------------------------|
B|-15----17----14----15----17---14-----15----17----15-----------------------|
G|--x-----x-----x-----x-----x----x------x-----x-----x-----------------------|
D|-12----14----11----12----14---11-----12----14----12-----------------------|
A|--------------------------------------------------------------------------|
E|--------------------------------------------------------------------------|
Related for The Pains Of Being Pure At Heart tab