Song name
# A B C D E F G H I J K L M N O P Q R S T U V W X Y Z

The Pains Of Being Pure At Heart - Young Adult Friction tab

capo 2

intro:  C  Am7  Fmaj7  C   x2

C                              Am7
between the stacks in the library
                           Fmaj7
not like anyone stopped to see
                       C
we came they went, our bodies spent

among the dust and the microfiche
C                     Am7
dark winters wear you down
                    Fmaj7
up again to see the dawn

in your worn sweatshirt
         C  
and your mothers old skirt
                              G
its enough to turn my studies down

             Fmaj7                 C
now that you feel, you say its not real
G            Am7  Fmaj7            intro x2  
now that you feel, you say its not real

C                               Am7
i never thought i would come of age
                     Fmaj7
let alone on a moldy page

you put your back to the spines
        C 
and you said it was fine if theres nothing really left to say
C                             Am7
youre taking toffee with your vicodin
                            Fmaj7
something sweet to forget about him
                              C    
if you go your own way i will go my own way
                            G      
and well never speak of it again
 
             Fmaj7                 C
now that you feel, you say its not real
G            Am7  Fmaj7            intro   
now that you feel, you say its not real

bridge:
e|--------------------------------------------------------------------------|
B|-12-12-12-12-12-12-12--------12-12-12-12-8-8-8----------------------------|
G|-12-12-12-12-12-12-12---x3---12-12-12-12-9-9-9----------------------------|
D|--x--x--x--x--x--x--x--------x-x-x-x-x-x-x-x-x----------------------------|
A|-10-10-10-10-10-10-10--------10-10-10-10-7-7-7----------------------------|
E|--------------------------------------------------------------------------|

e|--------------------------------------------------------------------------|
B|-10-10-10-10-10-10-10--------10-10-10-10-12-12-12-------------------------|
G|-10-10-10-10-10-10-10---x3---10-10-10-10-10-10-10-------------------------|
D|--x--x--x--x--x--x--x---------x--x--x--x--x--x--x-------------------------|
A|--8--8--8--8--8--8--8---------8--8--8--8--8--8--8-------------------------|
E|--------------------------------------------------------------------------|

e|--------------------------------------------------------------------------|
B|-12-12-12-12-12-12-12--------12-12-12-12-8-8-8----------------------------|
G|-12-12-12-12-12-12-12---x3---12-12-12-12-9-9-9----------------------------|
D|--x--x--x--x--x--x--x--------x-x-x-x-x-x-x-x-x----------------------------|
A|-10-10-10-10-10-10-10--------10-10-10-10-7-7-7----------------------------|
E|--------------------------------------------------------------------------|

e|-----------------------------8--------------------------------------------|
B|-10-10-10-10-10-10-10--------8--------------------------------------------|
G|-10-10-10-10-10-10-10---x4---9--------------------------------------------|
D|--x--x--x--x--x--x--x-------10--------------------------------------------|
A|--8--8--8--8--8--8--8-------10--------------------------------------------|
E|-----------------------------8--------------------------------------------|

e|-0-0-0-0-0-0-0-0-0-0-0-0-0-0-0-0------------------------------------------|
B|-5-5-5-5-5-5-5-5-5-5-5-5-5-3-3-3----x4------------------------------------|
G|--------------------------------------------------------------------------|
D|--------------------------------------------------------------------------|
A|--------------------------------------------------------------------------|
E|--------------------------------------------------------------------------|

dont check me out   with riff above x8

dont check me out   with intro chords x2

end with: 
   Fmaj7                        C  
e|-0-0-0-0-0-0-0--0-0-0-0-0-0-0--0-0-0-0-0-0-0--0-0-0-0-0-0-0---------------|
B|-1-1-1-1-1-1-1--1-1-1-1-1-1-1--1-1-1-1-1-1-1--1-1-1-1-1-1-1---------------|
G|-2-2-2-2-2-2-2--2-2-2-2-2-2-2--0-0-0-0-0-0-0--0-0-0-0-0-0-0---------------|
D|-3-3-3-3-3-3-3--3-3-3-3-3-3-3--2-2-2-2-2-2-2--2-2-2-2-2-2-2---------------|
A|-------------------------------3-3-3-3-3-3-3--3-3-3-3-3-3-3---------------|
E|--------------------------------------------------------------------------|
Tap to rate this tab
 
# A B C D E F G H I J K L M N O P Q R S T U V W X Y Z