Guitaretab - guitar tabs
Song name
# A B C D E F G H I J K L M N O P Q R S T U V W X Y Z

The Pale Pacific - Tied To A Million Things tab

----------------------------------------------------------------------------
Tied To A Million Things  The Pale Pacific
----------------------------------------------------------------------------
Tabbed by: Nick
Email: nicholas.hart@uconn.edu

This is the intro but its basicaly played throughout the whole song

Tuning: Standard
[ Tab from: http://www.guitaretab.com/t/the-pale-pacific/82622.html ]
e|-------------------------------------------------------------------------|
B|---------5-------6-------6-------6---------------------------------------|
G|-----5-------5-------5-------5-------------------------------------------|
D|---7---7---7---7---7---7---7---7-----------------------------------------|
A|-------------------------------------------------------------------------|
E|-------------------------------------------------------------------------|

Play that repeatedly then play this:

e|--------------------------------------|
B|---------5-------5-------5-------6----|
G|-----5-------5-------5-------5--------|
D|---7---7---7---7---7---7---7---7------|
A|--------------------------------------|
E|--------------------------------------|

e|--------------------------------------|
B|---------6-------6-------6-------6----|
G|-----5-------5-------5-------5--------|
D|---7---7---7---7---7---7---7---7------|
A|--------------------------------------|
E|--------------------------------------|

simple enough.  enjoy