Song name
# A B C D E F G H I J K L M N O P Q R S T U V W X Y Z

The Panic Channel - Why Cry tab

Why Cry
The Panic Channel
Track NumBer 4 of ONe (2006)  
Tabbed By: Mariano Arnaiz
Anything to : marianoarnaiz@hotmail.com
Tunning & Guitars:  Guitar 1 (Gtr 1) = Rhytm gutiar : Standart Tunning (Need distortion & Clean)
                    Guitar 2 (Gtr 2) = Lead gutiar  : Standart Tunning (Need distortion & Clean + Delay)
                    Guitar 3 (Gtr 3) = Acousatic Guitar  : Standart Tunning 


Intro

 Gtr 1
e||-----|-------------------------|-------------------------|-------------------------||
B||-----|--3--------3-------3-----|--1--------1-------1-----|--2--------2-------2-----||
G||-----|--3--3-3---3--3-3--3--3--|--2--------2-------2-----|--2--2-2---2--2-2--2--2--||
D||-----|--3--3-3---3--3-3--3--3--|--3--3-3---3--3-3--3--3--|--2--2-2---2--2-2--2--2--||
A||-----|--1--1-1---1--1-1--1--1--|--3--3-3---3--3-3--3--3--|--0--0-0---0--0-0--0--0--||
E||-----|-------------------------|--1--1-1---1--1-1--1--1--|-------------------------||
 | Gtr 2
e||-----|--13-12---13-12---13-12--|--13-12---13-12---13-12--|--13-12---13-12---13-12--||
B||-----|-------13------13--------|-------13------13--------|-------14------14--------||
G||-----|-------------------------|-------------------------|-------------------------||
D||--5--|-------------------------|-------------------------|-------------------------||
A||-----|-------------------------|-------------------------|-------------------------||
E||-----|-------------------------|-------------------------|-------------------------||


Verse 1

 Gtr 1
e||-------------------------|-------------------------||
B||--1--------1-------1-----|--5--------5-------5-----||
G||--2--------2-------2-----|--5--5-5---5--5-5--5--5--|| x2
D||--3--3-3---3--3-3--3--3--|--5--5-5---5--5-5--5--5--||
A||--3--3-3---3--3-3--3--3--|--3--3-3---3--3-3--3--3--||
E||--1--1-1---1--1-1--1--1--|-------------------------||
 | Gtr 2
e||-------------------------|-------------------------||
B||--./10-------------------|--./5--------------------||
G||--./10-------------------|--./5--------------------|| x2
D||--./10-------------------|--./5--------------------||
A||-------------------------|-------------------------||
E||--(SWELL WITH VOLUME)----|--(SWELL WITH VOLUME)----||


 Gtr 1
e||--0---------------|------------------|--0--0-0-0-0-0-0--|------------------||
B||--3--3-3-3-3-3-3--|------------------|--0--0-0-0-0-0-0--|------------------||
G||--2--2-2-2-2-2-2--|--2--2-2-2-2-2-2--|--1--1-1-1-1-1-1--|--2--2-2-2-2-2-2--||
D||--0--0-0-0-0-0-0--|--3--3-3-3-3-3-3--|--2--2-2-2-2-2-2--|--3--3-3-3-3-3-3--||
A||--0--0-0-0-0-0-0--|--3--3-3-3-3-3-3--|--2--2-2-2-2-2-2--|--3--3-3-3-3-3-3--||
E||------------------|--1--1-1-1-1-1-1--|--0--0-0-0-0-0-0--|--1--1-1-1-1-1-1--||
 | Gtr 2
e||------------------|------------------|---------0--------|------------------||
B||----------5-------|----6---6---------|---------5--------|--6---------6-----||
G||-----7---------7--|------5-------5---|----4----------4--|--5------5--------||
D||---7---7-----7----|--7--------7------|--6---------------|--7---7-----------||
A||------------------|------------------|------------7-----|------------------||
E||------------------|------------------|------------------|------------------||


Pre-Chorus

 Gtr 1
e||----------------|--0--0-0-0-0-0--|--1--1-1-1-1-1--|--0--0-0-0-0-0--||
B||--5-------------|--0--0-0-0-0-0--|--1--1-1-1-1-1--|--2--2-2-2-2-2--||
G||--5--5-5-5-5-5--|--1--1-1-1-1-1--|--2--2-2-2-2-2--|--2--2-2-2-2-2--||
D||--5--5-5-5-5-5--|--2--2-2-2-2-2--|--3--3-3-3-3-3--|--2--2-2-2-2-2--||
A||--3--3-3-3-3-3--|--2--2-2-2-2-2--|--3--3-3-3-3-3--|--0--0-0-0-0-0--||
E||----------------|--0--0-0-0-0-0--|--1--1-1-1-1-1--|----------------||
 | Gtr 2
e||--3--3-3-3-3-3--|----------------|----------------|----------------||
B||--3--3-3-3-3-3--|--5--5-5-5-5-5--|--6--6-6-6-6-6--|--5--5-5-5-5-5--||
G||--0--0-0-0-0-0--|--4--4-4-4-4-4--|--5--5-5-5-5-5--|--6--6-6-6-6-6--||
D||--2--2-2-2-2-2--|--6--6-6-6-6-6--|--7--7-7-7-7-7--|--7--7-7-7-7-7--||
A||--3--3-3-3-3-3--|--7--7-7-7-7-7--|--8--8-8-8-8-8--|--7--7-7-7-7-7--||
E||----------------|----------------|----------------|----------------||


Chorus

Gtr 1
e||-------------------------|-------------------------|--1--1-1---1--1-1--1--1--|--3--3-3---3--3-3--3--3--||
B||--3--------3-------3-----|--1--------1-------1-----|--3--3-3---3--3-3--3--3--|--3--3-3---3--3-3--3--3--||
G||--3--3-3---3--3-3--3--3--|--2--------2-------2-----|--2--2-2---2--2-2--2--2--|--0--0-0---0--0-0--0--0--||
D||--3--3-3---3--3-3--3--3--|--3--3-3---3--3-3--3--3--|--0--0-0---0--0-0--0--0--|--0--0-0---0--0-0--0--0--||
A||--1--1-1---1--1-1--1--1--|--3--3-3---3--3-3--3--3--|--0--0-0---0--0-0--0--0--|--2--2-2---2--2-2--2--2--||
E||-------------------------|--1--1-1---1--1-1--1--1--|-------------------------|--3--3-3---3--3-3--3--3--||
 | Gtr 2
e||--13-12---13-12---13-12--|--13-12---13-12---13-12--|--13-12---13-12---13-12--|--13-12---13-12---13-12--||
B||-------13------13--------|-------13------13--------|-------13------13--------|-------13------13--------||
G||-------------------------|-------------------------|-------------------------|-------------------------||
D||-------------------------|-------------------------|-------------------------|-------------------------||
A||-------------------------|-------------------------|-------------------------|-------------------------||
E||-------------------------|-------------------------|-------------------------|-------------------------||

Gtr 1
e||-------------------------|-------------------------|-------------------------||
B||--3--------3-------3-----|--1--------1-------1-----|--2--------2-------2-----||
G||--3--3-3---3--3-3--3--3--|--2--------2-------2-----|--2--2-2---2--2-2--2--2--||
D||--3--3-3---3--3-3--3--3--|--3--3-3---3--3-3--3--3--|--2--2-2---2--2-2--2--2--||
A||--1--1-1---1--1-1--1--1--|--3--3-3---3--3-3--3--3--|--0--0-0---0--0-0--0--0--||
E||-------------------------|--1--1-1---1--1-1--1--1--|-------------------------||
 | Gtr 2
e||--13-12---13-12---13-12--|--13-12---13-12---13-12--|--13-12---13-12---13-12--||
B||-------13------13--------|-------13------13--------|-------14------14--------||
G||-------------------------|-------------------------|-------------------------||
D||-------------------------|-------------------------|-------------------------||
A||-------------------------|-------------------------|-------------------------||
E||-------------------------|-------------------------|-------------------------||


Verse 2

 Gtr 1
e||-------------------------|-------------------------||
B||--1--------1-------1-----|--5--------5-------5-----||
G||--2--------2-------2-----|--5--5-5---5--5-5--5--5--|| x2
D||--3--3-3---3--3-3--3--3--|--5--5-5---5--5-5--5--5--||
A||--3--3-3---3--3-3--3--3--|--3--3-3---3--3-3--3--3--||
E||--1--1-1---1--1-1--1--1--|-------------------------||
 | Gtr 2
e||-------------------------|-------------------------||
B||--./10-------------------|--./5--------------------||
G||--./10-------------------|--./5--------------------|| x2
D||--./10-------------------|--./5--------------------||
A||-------------------------|-------------------------||
E||--(SWELL WITH VOLUME)----|--(SWELL WITH VOLUME)----||


 Gtr 1
e||--0---------------|------------------|--0--0-0-0-0-0-0--|------------------||
B||--3--3-3-3-3-3-3--|------------------|--0--0-0-0-0-0-0--|------------------||
G||--2--2-2-2-2-2-2--|--2--2-2-2-2-2-2--|--1--1-1-1-1-1-1--|--2--2-2-2-2-2-2--||
D||--0--0-0-0-0-0-0--|--3--3-3-3-3-3-3--|--2--2-2-2-2-2-2--|--3--3-3-3-3-3-3--||
A||--0--0-0-0-0-0-0--|--3--3-3-3-3-3-3--|--2--2-2-2-2-2-2--|--3--3-3-3-3-3-3--||
E||------------------|--1--1-1-1-1-1-1--|--0--0-0-0-0-0-0--|--1--1-1-1-1-1-1--||
 | Gtr 2
e||------------------|------------------|---------0--------|------------------||
B||----------5-------|----6---6---------|---------5--------|--6---------6-----||
G||-----7---------7--|------5-------5---|----4----------4--|--5------5--------||
D||---7---7-----7----|--7--------7------|--6---------------|--7---7-----------||
A||------------------|------------------|------------7-----|------------------||
E||------------------|------------------|------------------|------------------||

Pre-Chorus

 Gtr 1
e||----------------|--0--0-0-0-0-0--|--1--1-1-1-1-1--|--0--0-0-0-0-0--||
B||--5-------------|--0--0-0-0-0-0--|--1--1-1-1-1-1--|--2--2-2-2-2-2--||
G||--5--5-5-5-5-5--|--1--1-1-1-1-1--|--2--2-2-2-2-2--|--2--2-2-2-2-2--||
D||--5--5-5-5-5-5--|--2--2-2-2-2-2--|--3--3-3-3-3-3--|--2--2-2-2-2-2--||
A||--3--3-3-3-3-3--|--2--2-2-2-2-2--|--3--3-3-3-3-3--|--0--0-0-0-0-0--||
E||----------------|--0--0-0-0-0-0--|--1--1-1-1-1-1--|----------------||
 | Gtr 2
e||--3--3-3-3-3-3--|----------------|----------------|----------------||
B||--3--3-3-3-3-3--|--5--5-5-5-5-5--|--6--6-6-6-6-6--|--5--5-5-5-5-5--||
G||--0--0-0-0-0-0--|--4--4-4-4-4-4--|--5--5-5-5-5-5--|--6--6-6-6-6-6--||
D||--2--2-2-2-2-2--|--6--6-6-6-6-6--|--7--7-7-7-7-7--|--7--7-7-7-7-7--||
A||--3--3-3-3-3-3--|--7--7-7-7-7-7--|--8--8-8-8-8-8--|--7--7-7-7-7-7--||
E||----------------|----------------|----------------|----------------||

Chorus

Gtr 1
e||-------------------------|-------------------------|--1--1-1---1--1-1--1--1--|--3--3-3---3--3-3--3--3--||
B||--3--------3-------3-----|--1--------1-------1-----|--3--3-3---3--3-3--3--3--|--3--3-3---3--3-3--3--3--||
G||--3--3-3---3--3-3--3--3--|--2--------2-------2-----|--2--2-2---2--2-2--2--2--|--0--0-0---0--0-0--0--0--||
D||--3--3-3---3--3-3--3--3--|--3--3-3---3--3-3--3--3--|--0--0-0---0--0-0--0--0--|--0--0-0---0--0-0--0--0--||
A||--1--1-1---1--1-1--1--1--|--3--3-3---3--3-3--3--3--|--0--0-0---0--0-0--0--0--|--2--2-2---2--2-2--2--2--||
E||-------------------------|--1--1-1---1--1-1--1--1--|-------------------------|--3--3-3---3--3-3--3--3--||
 | Gtr 2
e||--13-12---13-12---13-12--|--13-12---13-12---13-12--|--13-12---13-12---13-12--|--13-12---13-12---13-12--||
B||-------13------13--------|-------13------13--------|-------13------13--------|-------13------13--------||
G||-------------------------|-------------------------|-------------------------|-------------------------||
D||-------------------------|-------------------------|-------------------------|-------------------------||
A||-------------------------|-------------------------|-------------------------|-------------------------||
E||-------------------------|-------------------------|-------------------------|-------------------------||

Gtr 1
e||-------------------------|-------------------------|-------------------------||
B||--3--------3-------3-----|--1--------1-------1-----|--2--------2-------2-----||
G||--3--3-3---3--3-3--3--3--|--2--------2-------2-----|--2--2-2---2--2-2--2--2--||
D||--3--3-3---3--3-3--3--3--|--3--3-3---3--3-3--3--3--|--2--2-2---2--2-2--2--2--||
A||--1--1-1---1--1-1--1--1--|--3--3-3---3--3-3--3--3--|--0--0-0---0--0-0--0--0--||
E||-------------------------|--1--1-1---1--1-1--1--1--|-------------------------||
 | Gtr 2
e||--13-12---13-12---13-12--|--13-12---13-12---13-12--|--13-12---13-12-----.x\--||
B||-------13------13--------|-------13------13--------|-------14------14---.x\--||
G||-------------------------|-------------------------|-------------------------||
D||-------------------------|-------------------------|-------------------------||
A||-------------------------|-------------------------|-------------------------||
E||-------------------------|-------------------------|-------------------------||



Guitar Solo: Pretty much the easiest solo ever, but still you need to know a couple of things to play it
 
Gtr 1
e||-------------------------|-------------------------|-------------------------||
B||--3--------3-------3-----|--1--------1-------1-----|--2--------2-------2-----||
G||--3--3-3---3--3-3--3--3--|--2--------2-------2-----|--2--2-2---2--2-2--2--2--|| x2
D||--3--3-3---3--3-3--3--3--|--3--3-3---3--3-3--3--3--|--2--2-2---2--2-2--2--2--||
A||--1--1-1---1--1-1--1--1--|--3--3-3---3--3-3--3--3--|--0--0-0---0--0-0--0--0--||
E||-------------------------|--1--1-1---1--1-1--1--1--|-------------------------||
 | Gtr 2
e||------------------------|-----------------------|------------------------|---------------------------------------------|------------------------------||
B||------------------------|-----------------------|------------------------|--./10--10-10--10-8------8-10p8--------8-10--|--10--10fb12--10.....--10.x\--||
G||--./7--(7)./9--(9)./10--|--/5--(5)./9--(9)./10--|--/6--(6)./*8*--(8)./9--|--------------------9b10........(9b)10-------|------------------------------||
D||------------------------|-----------------------|----------Pitch---------|---------------------------------------------|------------------------------||
A||------------------------|-----------------------|----------Harmonic------|----------------------(HOLD-THAT 10)---------|------------------------------||
E||------------------------|-----------------------|------------------------|---------------------------------------------|------------------------------||


Pre-Chorus

 Gtr 1
e||----------------|--0--0-0-0-0-0--|--1--1-1-1-1-1--|--0--0-0-0-0-0--||
B||--5-------------|--0--0-0-0-0-0--|--1--1-1-1-1-1--|--2--2-2-2-2-2--||
G||--5--5-5-5-5-5--|--1--1-1-1-1-1--|--2--2-2-2-2-2--|--2--2-2-2-2-2--||
D||--5--5-5-5-5-5--|--2--2-2-2-2-2--|--3--3-3-3-3-3--|--2--2-2-2-2-2--||
A||--3--3-3-3-3-3--|--2--2-2-2-2-2--|--3--3-3-3-3-3--|--0--0-0-0-0-0--||
E||----------------|--0--0-0-0-0-0--|--1--1-1-1-1-1--|----------------||
 | Gtr 2
e||--3--3-3-3-3-3--|----------------|----------------|----------------||
B||--3--3-3-3-3-3--|--5--5-5-5-5-5--|--6--6-6-6-6-6--|--5--5-5-5-5-5--||
G||--0--0-0-0-0-0--|--4--4-4-4-4-4--|--5--5-5-5-5-5--|--6--6-6-6-6-6--||
D||--2--2-2-2-2-2--|--6--6-6-6-6-6--|--7--7-7-7-7-7--|--7--7-7-7-7-7--||
A||--3--3-3-3-3-3--|--7--7-7-7-7-7--|--8--8-8-8-8-8--|--7--7-7-7-7-7--||
E||----------------|----------------|----------------|----------------||

Acustic Chorus

Gtr 3
e||-------------------------|-------------------------|--1--1-1---1--1-1--1--1--|--3--3-3---3--3-3--3--3--||
B||--3--------3-------3-----|--1--------1-------1-----|--3--3-3---3--3-3--3--3--|--3--3-3---3--3-3--3--3--||
G||--3--3-3---3--3-3--3--3--|--2--------2-------2-----|--2--2-2---2--2-2--2--2--|--0--0-0---0--0-0--0--0--||
D||--3--3-3---3--3-3--3--3--|--3--3-3---3--3-3--3--3--|--0--0-0---0--0-0--0--0--|--0--0-0---0--0-0--0--0--||
A||--1--1-1---1--1-1--1--1--|--3--3-3---3--3-3--3--3--|--0--0-0---0--0-0--0--0--|--2--2-2---2--2-2--2--2--||
E||-------------------------|--1--1-1---1--1-1--1--1--|-------------------------|--3--3-3---3--3-3--3--3--||

Chorus

Gtr 1
e||-------------------------|-------------------------|--1--1-1---1--1-1--1--1--|--3--3-3---3--3-3--3--3--||
B||--3--------3-------3-----|--1--------1-------1-----|--3--3-3---3--3-3--3--3--|--3--3-3---3--3-3--3--3--||
G||--3--3-3---3--3-3--3--3--|--2--------2-------2-----|--2--2-2---2--2-2--2--2--|--0--0-0---0--0-0--0--0--||
D||--3--3-3---3--3-3--3--3--|--3--3-3---3--3-3--3--3--|--0--0-0---0--0-0--0--0--|--0--0-0---0--0-0--0--0--||
A||--1--1-1---1--1-1--1--1--|--3--3-3---3--3-3--3--3--|--0--0-0---0--0-0--0--0--|--2--2-2---2--2-2--2--2--||
E||-------------------------|--1--1-1---1--1-1--1--1--|-------------------------|--3--3-3---3--3-3--3--3--||
 | Gtr 2
e||--13-12---13-12---13-12--|--13-12---13-12---13-12--|--13-12---13-12---13-12--|--13-12---13-12---13-12--||
B||-------13------13--------|-------13------13--------|-------13------13--------|-------13------13--------||
G||-------------------------|-------------------------|-------------------------|-------------------------||
D||-------------------------|-------------------------|-------------------------|-------------------------||
A||-------------------------|-------------------------|-------------------------|-------------------------||
E||-------------------------|-------------------------|-------------------------|-------------------------||

Gtr 1
e||-------------------------|-------------------------|-------------------------||
B||--3--------3-------3-----|--1--------1-------1-----|--2--------2-------2-----||
G||--3--3-3---3--3-3--3--3--|--2--------2-------2-----|--2--2-2---2--2-2--2--2--||
D||--3--3-3---3--3-3--3--3--|--3--3-3---3--3-3--3--3--|--2--2-2---2--2-2--2--2--||
A||--1--1-1---1--1-1--1--1--|--3--3-3---3--3-3--3--3--|--0--0-0---0--0-0--0--0--||
E||-------------------------|--1--1-1---1--1-1--1--1--|-------------------------||
 | Gtr 2
e||--13-12---13-12---13-12--|--13-12---13-12---13-12--|--13-12---13-12------17--||
B||-------13------13--------|-------13------13--------|-------14------14--------||
G||-------------------------|-------------------------|-------------------------||
D||-------------------------|-------------------------|-------------------------||
A||-------------------------|-------------------------|-------------------------||
E||-------------------------|-------------------------|-------------------------||
 
Tap to rate this tab
# A B C D E F G H I J K L M N O P Q R S T U V W X Y Z