Song name
# A B C D E F G H I J K L M N O P Q R S T U V W X Y Z

The Panic Channel - She Wont Last tab

#-----------------------------------------------------------------------------#
#-- File created with Instab - http://www.pconline.com/~smcarey/instab.html --#
#-----------------------------------------------------------------------------#

Author/Artist: The Panic Channel
Title: She Won't Last
Album: (ONe)
Transcribed by: Greg Burt
Email: greg@gregburt.com

Tuning: drop D - DADGBe

suggested delay pedal settings for Boss DD-3:
E.LEVEL - 3 o'clock
F.BACK  - 8:30
D.TIME  - 12 o'clock
MODE    - 800ms

PM = palm mute


Intro (clean w/ delay)
--------------10---------------10---------------10---------------10-----------|
-8h10-10---10-----8h10-10---10-----8h10-10---10-----8h10-10---10--------------|
------------------------------------------------------------------------------|
-0-------0--------0-------0--------0-------0--------0-------0-----------------|
------------------------------------------------------------------------------|
------------------------------------------------------------------------------|


--------------8---------------------------------10---------------10-|---------|
-8h10-10---10-----8h10-10---10-11--8h10-10---10-----8h10-10---10----|---------|
--------------------------------------------------------------------|---------|
-0-------0--------0-------0--------0-------0--------0-------0-------|---------|
--------------------------------------------------------------------|---------|
--------------------------------------------------------------------|---------|

Verse 1
--------------10---------------10---------------10---------------8------------|
-8h10-10---10-----8h10-10---10-----8h10-10---10-----8h10-10---10--------------|
------------------------------------------------------------------------------|
-0-------0--------0-------0--------0-------0--------0-------0-----------------|
------------------------------------------------------------------------------|
------------------------------------------------------------------------------|


------------------------------------------------10---------------10-----------|
-8h10-10---10-11--8h10-10---10-11--8h10-10---10-----8h10-10---10--------------|
------------------------------------------------------------------------------|
-0-------0--------0-------0--------0-------0--------0-------0-----------------|
------------------------------------------------------------------------------|
------------------------------------------------------------------------------|


--------------8---------------------------------10---------------10--|--------|
-8h10-10---10-----8h10-10---10-11--8h10-10---10-----8h10-10---10-----|--------|
---------------------------------------------------------------------|--------|
-0-------0--------0-------0--------0-------0--------0-------0--------|--------|
---------------------------------------------------------------------|--------|
---------------------------------------------------------------------|--------|


--------------10---------------10---------------10---------------8------------|
-8h10-10---10-----8h10-10---10-----8h10-10---10-----8h10-10---10--------------|
------------------------------------------------------------------------------|
-0-------0--------0-------0--------0-------0--------0-------0-----------------|
------------------------------------------------------------------------------|
------------------------------------------------------------------------------|


----------------------------------|-------------------------------------------|
-8h10-10---10-11--8h10-10---10-11-|-------------------------------------------|
----------------------------------|-------------------------------------------|
-0-------0--------0-------0-------|-------------------------------------------|
----------------------------------|-------------------------------------------|
----------------------------------|-------------------------------------------|

CHORUS  (delay off, distortion on)
------------------------------------------------------------------------------|
------------------------------------------------------------------------------|
------------------------------------------------------------------------------|
-10-10-10-10-10-10-10-10-10-10-10-10-10-10-10-10-8--8--8--8--8--8--8--8-------|
-10-10-10-10-10-10-10-10-10-10-10-10-10-10-10-10-8--8--8--8--8--8--8--8-------|
-10-10-10-10-10-10-10-10-9--9--9--9---9-9--9--9--8--8--8--8--8--8--8--8-------|


------------------------------------------------------------------------------|
------------------------------------------------------------------------------|
------------------------------------------------------------------------------|
-8--8--8--8--8--8--8--8--6--6--6--6--6--6--6--6--8--8--8--8--8--8--8--8-------|
-8--8--8--8--8--8--8--8--6--6--6--6--6--6--6--6--8--8--8--8--8--8--8--8-------|
-7--7--7--7--7--7--7--7--6--6--6--6--6--6--6--6--8--8--8--8--8--8--8--8-------|


-------------------------------------------------|
-------------------------------------------------|
-------PM-PM-------PM----------PM-PM-------------|
-3-----3--3--3-----3--1----\3--3--3--3-----------|
-3-----3--3--3-----3--1----\3--3--3--3-----------|
-3-----3--3--3-----3--1----\3--3--3--3-----------|

Verse 2 (distortion, no delay)
-----------------10---------------10-----------|
----8h10------10-----8h10------10--------------|
-----------------------------------------------|
------------0----------------0-----------------|
-----------------------------------------------|
-----------------------------------------------|


--------------10---------------10---------------10---------------8------------|
-8h10------10-----8h10------10-----8h10------10-----8h10------10--------------|
------------------------------------------------------------------------------|
---------0----------------0----------------0----------------0-----------------|
------------------------------------------------------------------------------|
------------------------------------------------------------------------------|


------------------------------------------------10---------------10-----------|
-8h10------10-11--8h10------10-11--8h10------10-----8h10------10--------------|
------------------------------------------------------------------------------|
---------0----------------0----------------0----------------0-----------------|
------------------------------------------------------------------------------|
------------------------------------------------------------------------------|


--------------8----------------------|
-8h10------10------11----------------|
------------------8------------------|
---------0-------0-------------------|
-------------------------------------|
-------------------------------------|

CHORUS 2 (play through twice)
------------------------------------------------------------------------------|
------------------------------------------------------------------------------|
------------------------------------------------------------------------------|
-10-10-10-10-10-10-10-10-10-10-10-10-10-10-10-10-8--8--8--8--8--8--8--8-------|
-10-10-10-10-10-10-10-10-10-10-10-10-10-10-10-10-8--8--8--8--8--8--8--8-------|
-10-10-10-10-10-10-10-10-9--9--9--9---9-9--9--9--8--8--8--8--8--8--8--8-------|

------------------------------------------------------------------------------|
------------------------------------------------------------------------------|
------------------------------------------------------------------------------|
-8--8--8--8--8--8--8--8--6--6--6--6--6--6--6--6--8--8--8--8--8--8--8--8-------|
-8--8--8--8--8--8--8--8--6--6--6--6--6--6--6--6--8--8--8--8--8--8--8--8-------|
-7--7--7--7--7--7--7--7--6--6--6--6--6--6--6--6--8--8--8--8--8--8--8--8-------|


-------------------------------------------------|
-------------------------------------------------|
-------PM-PM-------PM----------PM-PM-------------|
-3-----3--3--3-----3--1----\3--3--3--3-----------|
-3-----3--3--3-----3--1----\3--3--3--3-----------|
-3-----3--3--3-----3--1----\3--3--3--3-----------|

Bridge (clean) (repeat riff 7 times)
palm mute all notes
----------------------|
----------------------|
---------3------------|
-----5-----5---5------|
---5---5-----5--------|
-5--------------------|


 Solo
 (play Chorus 2 - use Cm pentatonic scale)

 Last Chorus
  (play Chorus 2)

 Ending:
------------------------------------------------------------------------------|
------------------------------------------------------------------------------|
-PM-PM-------PM-PM-------PM----------PM-PM------------------------------------|
-3--3--3-----3--3--3-----3--1----\3--3--3--3----------------------------------|
-3--3--3-----3--3--3-----3--1----\3--3--3--3----------------------------------|
-3--3--3-----3--3--3-----3--1----\3--3--3--3----------------------------------|


------------------------------------------------------------------------------|
------------------------------------------------------------------------------|
-PM-PM-------PM-PM-------PM----------PM-PM-------PM-PM------------------------|
-3--3--3-----3--3--3-----3--1----\3--3--3--3-----3--3--3----------------------|
-3--3--3-----3--3--3-----3--1----\3--3--3--3-----3--3--3----------------------|
-3--3--3-----3--3--3-----3--1----\3--3--3--3-----3--3--3----------------------|
Tap to rate this tab
# A B C D E F G H I J K L M N O P Q R S T U V W X Y Z