Song name
# A B C D E F G H I J K L M N O P Q R S T U V W X Y Z

The Panic Channel - Pink Cherry tab

Panic Channel-Pink Cherry

Artista: Panic Chanel.   
Album: Shinjinsen (Yume Ni Mukatte Hen).   
Ao: 2004.

Esta es casi mi obra maestra mi 3ra tab
es partidamente perfecta con un ligero margen 
de error de quizs un 1.5% y eso en el solo creo yo.
Esta cancin es una de mis favoritas esta bien 
alocada y las guitarras suenan bien chido lastima
que no sean tan populares aqu en Mxico el que
denomino J-Rock/Punk agradezco a Jazmn R. I. por
pasrmela y como te promet al fin la saque entera
o por lo menos la guitarra 1.

Nada mas interpreten los tiempos escuchndola
no es muy difcil.
El orden esta ah abajo hasta les divid los
intros, versos, coros y agregados la verdad
si me la rife para esta cancin o por lo
menos esta completa no como los pedazos que
saque de las de Panda.

Intro/Coro 1           		
E|---|---|----|--------| 	
B|---|---|----|--------| 	
G|-5-\-9-\-10-\12/10\12| 	
D|-5-\-9-\-10-\12/10\12| 	
A|-3-\-7-\-8--\10/8-\10| 	
E|---|---|----|--------| 	

Intro/Coro 2  |---Parte 2!--|			
E|---|---|----|-----|---|---|
B|---|---|----|-----|---|---|
G|-5-|-9-|-10-|12|10|9|7|-5-|
D|-5-|-9-|-10-|12|10|9|7|-5-|
A|-3-|-7-|-8--|10|8-|7|5|-3-|
E|---|---|----|-----|---|---|

Intro/Coro 2 Continuacin
|-8----|--||------|
|------|--||---*--|
|---5-4\4-||-99/3-|
|-----4\5-||-99/3-|
|-----2\3-||-77/1-|
|------|--||------|

Verso1.0: 					
E|---|---|---|---|		
B|---|---|---|---| 		
G|-5-|---|---|---|		
D|-5-|-7-|-3-|-5-| 		
A|-3-|-7-|-3-|-5-| 		
E|---|-5-|-1-|-3-| 		
Verso 2.0:				
E|---|---|---|---|		
B|---|---|---|---|		
G|---|---|-5-|---|		
D|-3-|-5-|-5-|-7-|		
A|-3-|-5-|-3-|-7-|		
E|-1-|-3-|---|-5-|		

Verso 2.1:
E|---|---|---|---|
B|---|---|---|---|
G|---|---|-5-\-9-|
D|-3-|-5-|-5-\-9-|
A|-3-|-5-|-3-\-7-|
E|-1-|-3-|---|---|

Verso 2.2:
E|---|---|---|-|---|
B|---|---|---|-|---|
G|---|---|4\5|5|4\5|
D|-3-|-5-|4\5|5|4\5|
A|-3-|-5-|2\3|3|2\3|
E|-1-|-3-|---|-|---|

Verso3.0:
E|---|---|---|---|
B|---|---|---|---|
G|-7-|---|---|---|
D|-7-|-7-|-9-|-5-|
A|-5-|-7-|-9-|-5-|
E|---|-5-|-7-|-3-|

Verso3.1:
E|---|---|---|-----------|
B|---|---|---|-----------|
G|-7-|---|---|-----------|
D|-7-|-7-|-9-|-12-11-9-7-|
A|-5-|-7-|-9-|-12-11-9-7-|
E|---|-5-|-7-|-10-9--7-5-|

Solo:
E|--------------|---------|-----------------|-|-|-|---------------|
B|--------------|---------|-----------------|-|-|-|---------------|
G|--------------|---------|-----------------|-|-|-|9^-7-----------|
D|-3\5-5-5-5-5-5\7-7-7-7-7-7p9-77p9-7p9-77p9|5|7|9|-----9-7-5-----|
A|--------------|---------|-----------------|-|-|-|-----------7-5-|
E|--------------|---------|-----------------|-|-|-|---------------|

Transicin:
E|--|-|---|-|--|--|---|
B|--|-|---|-|--|--|---|
G|-5\7|7\9|9\11|11\12-|
D|-5\7|7\9|9\11|11\12-|
A|-3\5|5\7|7\9-|9-\10-| 
E|--|-|---|-|--|--|---|

Final
E|---|
B|---|
G|-5-|
D|-5-|
A|-3-|
E|---|

Orden:
intro/coro 1
intro/coro 2
intro/coro 1
intro/coro 2
intro/coro 1
intro/coro 2
continuacin del intro/coro 2
verso 1.0 x4
intro/coro 1
intro/coro 2
verso 1.0 x4
verso 2.0
verso 2.1
verso 2.0
verso 2.2 x2
verso 3.0
verso 3.1
verso 3.0
verso 3.1
Solo
verso 2.0
verso 2.1
verso 2.0
verso 2.2 x2
verso 3.0
verso 3.1
verso 3.0
verso 3.1
Transicin
Parte2 del intro/coro 2
intro/coro 1
intro/coro 2
intro/coro 1
intro/coro 2
Final

Saludos a los compas rokers que les gusta
la msica japonesa y una vez ms gracias 
Jazmn por proveerme de estas canciones tan 
preciadas y difciles de encontrar. 
Haber como nos va en la universdad.

tenken_kun@hotmail.com
Erick Rosales Albo
Albos Corp.
Aguascalientes Ags. Mxico.
Tap to rate this tab
# A B C D E F G H I J K L M N O P Q R S T U V W X Y Z