Song name
# A B C D E F G H I J K L M N O P Q R S T U V W X Y Z

The Panic Channel - Blue Bruises tab

                         DAVE NAVARRO

E5|---10------------------------10---10----------------------10----|
B4|-------11---------------11-------------11-------------8---------|
G4|-----------12-----11------------------------10----9-------------|
D4|----------------------------------------------------------------|
A3|----------------------------------------------------------------|
E3|----------------------------------------------------------------|

   STEVE ISSAC
               palm mute the below.

E5|----------------------------------------------|
B4|----------------------------------------------|
G4|----------------------------------------------|
D4|--4-4--4-4--4-4--4-4--4-4--4-4--4-4--4-4------|
A3|--4-4--4-4--4-4--4-4--4-4--4-4--4-4--4-4------|
E3|--2-2--2-2--2-2--2-2--2-2--2-2--2-2--2-4------|


E5|-----------------------------------------------|
B4|-----------------------------------------------|
G4|-----------------------------------------------|
D4|--2---2---2---2---2---2---2---2----------------|
A3|--0---0---0---0---0---0---0---0----------------|
E3|-----------------------------------------------|


E5|------------------------------------------------|
B4|------------------------------------------------|
G4|------------------------------------------------|
D4|--4-4---4-4----2-2-------4-4--4-4--4-4--4-4-----|
A3|--2-2---2-2----0-0-------4-4--4-4--4-4--4-4-----|
E3|---------------------0---2-2--2-2--2-2--2-2-----|

DAVE NAVARRO (non palm mute)


E5|---------------------------------------------0----------------|
B4|----------0--------------------------------3----3--------6----|
G4|------------------------------2----------2---------2-----5----|
D4|------4-------4-------------3---3-----0-----------------------|
A3|----4-----------4---------3-------3---------------------------|
E3|--2-----------------0---1-------------------------------------|



               SOLO

E5|----------------------------------------------|
B4|----------------------------------------------|
G4|-----F-I-G-U-R-E---I-T---O-U-T----------------|
D4|----------------------------------------------|
A3|----------------------------------------------|
E3|----------------------------------------------|

Tap to rate this tab
 
# A B C D E F G H I J K L M N O P Q R S T U V W X Y Z