Song name
# A B C D E F G H I J K L M N O P Q R S T U V W X Y Z

The Panics - My Best Mistake tab

My Best Mistake
by
The Panics

Transcribed by M. Collins

This is my attempt at figuring out the song for
one guitar. The fills are only meant to give a 
general idea of what's being played, and can be 
embellished as you like. I wasnt sure about the 
names of some of the chorus chords so I've written 
down how I play them.
Cheers

Chorus chords: A|x0222x  A#11|x0224x  A12|x0225x        
              A9|x0245x     E|022100 A/C#|x4222x


Intro
e|--0-0-0---|----------|--0-0-0---|----------| (x2) 
B|-5-4--2---|----------|-5-4--2---|----------|
G|------2---|-1/4-4---4|------2---|-1/4-4---4|
D|------x---|----------|------x---|----------|
A|------0---|----------|------0---|----------|
E|------x--0|-------0--|------x--0|-------0--|
                                     
e|-x-----|-------------x--|-x--------|-x---------|x---------|
B|-5--5--|-5--5-7/9-9--x--|-x--------|-x---------|x---------|
G|-6---6-|--6----------4--|-4--------|-4-----6-4-|4-----6-4-|
D|-7-----|-------------6--|-6--------|-6--6/7----|6--6/7----|
A|-0-0--0|---0---------7--|-7--------|-7---------|7---------|
E|-x-----|-------------x--|-x--------|-x---------|x---------|


Verse 1
A          E           F#m       C#m        B        A
I ain't so kind to wait, I don't like the idea of it all
                  E      F#m    C#m            B           A
You leave me here sighing, just tryin to make sense of it all
            G#m                  A                           
I guess I'm scared to watch this get old                 
   E         E    A     E         E    A
 e|0-------|------------|0-------|-----------|
 B|0-------|------------|0-------|-----------|
 G|1-------|--------6-4-|1-------|-------6-4-|
 D|2-------|-----6/7----|2-------|----6/7----|
 A|2-------|------------|2-------|-----------|
 E|0-------|------------|0-------|-----------|

So I wont let it start


Verse 2
A             E             F#m
I think we've half a chance,
           C#m        B                 A
Judging by all of the people that I've met
            E       F#m
But I ain't so sure, 
            C#m        B        A
I could use one more face to forget
    G#m                  A
Im only gonna leave you misled 

Chorus
A  A#11 A12 A9 E  A   A#11 A12 A9 E
Let it go my way, Leave me in my place 
              B                   A/C#
You know in a way, You're still my best mistake 

Intro fill (x1)


Verse 3
A           E        F#m      C#m           B             A
I ain't so used to it, I just keep her from thinking out loud 
      E     F#m    C#m           B       A
I say nothin', That never could calm her down 
         G#m               A
I'm just there to watch it go round

Chorus
A  A#11 A12 A9 E  A   A#11 A12 A9 E
Let it go my way, Leave me in my place 
              B                    A/C#
You know in a way, You're still my best mistake 

Ending
Intro fill (x2)

End on F#m
Tap to rate this tab
# A B C D E F G H I J K L M N O P Q R S T U V W X Y Z