Song name
# A B C D E F G H I J K L M N O P Q R S T U V W X Y Z

The Paper Kites - Bloom tab

I had been looking for the tabs for this song but I couldnt find one so I ended up 
tabbing it out from a tutorial on youtube. Hope this helps :)
Here is the video is want to try with it
http://www.youtube.com/watch?v=ne1jXZZmVVA


(/) Slide Up  (\) Slide Down  (h) Hammer On  (p) Pull Off  (b) Bend (r) Release (v) Vibrato


E|----------------------------------------------------|
B|--1-------------1--------------------1--------------|
G|---------0------------0------------------------0----|
D|------2------------2-------------2-----------0------|
A|--0----------0------------0*--------------0h2-------|
E|----------------------------------------------------|

*There is a rest for a second before you do to the next note

E|--------------------------------------------------|
B|-----------1-----------1----------1---------------|
G|-----------------0-------------0--------0---------|
D|--------0-----------0------0h2-------2----0-------|
A|--2h3--------3------------------------------------|
E|--------------------------------------------------|

E|--------------------------------------------------------------------|
B|--3-----------3--------1------------1--------0-----------0----------|
G|--------0----------0-----------0---------0---------0-----------0----|
D|-----0----------0-----------0---------0---------0-----------0-------|
A|--------------------------------------------------------------------|
E|--3-------3------------3---------3-----------3--------3-------------|
Tap to rate this tab
 
# A B C D E F G H I J K L M N O P Q R S T U V W X Y Z