Song name
# A B C D E F G H I J K L M N O P Q R S T U V W X Y Z

The Paper Kites - Drifting tab

Standard Tuning

*This song features "Travis Picking" fingerstyle throughout

Capo 2

          e|------------------------0---|
          B|----3------3-----3----------|
          G|--------0------------0------|
          D|-------4-----4------4-----4-|
          A|----3----3-------3----3-----|
          E|----------------------------|

     

          e|------------------------0---|
          B|----3------3-----3----------|
          G|--------0------------0------|
          D|-------4-----4------4-----4-|       (repeat from beginning)
          A|----------------------------|
          E|----0----0-------3----3-----|



          e|--------------------------------------|
          B|----3/5-3--0--------3/5-3--0----------|
  Solo:   G|-------------2-0-------------2-0------|
          D|---------------------------------0----|
          A|--------------------------------------|
          E|--------------------------------------|



          e|--------------------------------------|
          B|----3/5-3--0--------------------------|
          G|-------------2-0--------0-------------|
          D|-------------------4------------------|
          A|--------------------------------------|
          E|--------------------------------------|
Tap to rate this tab
# A B C D E F G H I J K L M N O P Q R S T U V W X Y Z