Song name
# A B C D E F G H I J K L M N O P Q R S T U V W X Y Z

The Paper Kites - Tenenbaum tab

--------------------------------------
                             Tenenbaum - The Paper Kites
--------------------------------------
Tabbed by: Adriaan De Laender

Tuning: C#G#C#FF#C# or CGCEFC with capo on 1st fret.
I tabbed this in C#G#C#FF#C# because my guitar sounds nicer that way.
There might be a confusing part that says: "!!PLAY ONLY WHEN REPEATING FROM VERSE 1!!"
This means you only need to play this part when you repeat the tab starting from VERSE 1.


INTRO 

Play twice
C#|-----0--------0---------0-----0--------0-----0--------0---|
F#|----------0---------0--------------0--------------0-------|
F |-----0------0---------0-------0------0-------0------0-----|
C#|---0---0--------------------------------------------------|
G#|-----------------2----------0---0----------0---0----------|
C#|----------------------------------------------------------|

C#|---------0--------0------0--------0-----0--------0--------|
F#|-----0--------0---------------0--------------0------------|
F |-------0--------0--------0------0-------0------0----------|
C#|----------------------------------------------------------|
G#|---2---------0--------------------------------------------|
C#|-----------------------0---0----------0---0---------------|

Played after intro
C#|-----0--------0-----0---------0---|
F#|----------0---------------0-------|
F |-----0------0-------0-------0-----|
C#|----------------------------------|
G#|----------------------------------|
C#|---0---0----------0---0-----------|


VERSE 1

Play twice till "END"
C#|-----0--------0---------0-----0--------0-----0--------0---|
F#|----------0---------0--------------0--------------0-------|
F |-----0------0---------0-------0------0-------0------0-----|
C#|---0---0--------------------------------------------------|
G#|------------------2---------0---0----------0---0----------|
C#|----------------------------------------------------------|

C#|---------0--------0------0--------0-----0--------0--------|
F#|-----0--------0---------------0--------------0------------|
F |-------0--------0--------0------0-------0------0----------|
C#|----------------------------------------------------------|
G#|---2---------0--------------------------------------------|
C#|-----------------------0---0----------0---0---------------|
END


!!PLAY ONLY WHEN REPEATING FROM VERSE 1!!
C#|-----0--------0-----0---------0---|
F#|----------0---------------0-------|
F |-----0------0-------0-------0-----|
C#|----------------------------------|
G#|----------------------------------|
C#|---0---0----------0---0-----------|
!!PLAY ONLY WHEN REPEATING FROM VERSE 1!!


C#|---------0--------0--------0---------0-----0-------0-----0-------0---|
G#|-----0--------0--------0---------0-------------0-------------0-------|
C#|-------0--------0--------0---------0-------0-----0-------0-----0-----|
F |---------------------------------------------------------------------|
F#|---------------------2---------0-------------------------------------|
C#|---5-------0-----------------------------0---0---------0---0---------|

C#|-----0--------0-----0---------0---|
F#|----------0---------------0-------|
F |-----0------0-------0-------0-----|
C#|----------------------------------|
G#|----------------------------------|
C#|---0---0----------0---0-----------|


CHORUS

Play 3 times till "END"
C#|-----0-------0-----0-------0----0-------0----------0---------0---|
F#|---------0-------------0------------0----------0---------0-------|
F |-----0-----0-------0-----0------0-----0----------0---------0-----|
C#|-----------------0---0-----------------------0-------------------|
G#|---0---0----------------------0---0---------------------0--------|
C#|-----------------------------------------------------------------|

C#|-----0-------0------0------0------0-------0-----0-------0--------|
F#|---------0--------------0--------------0-------------0-----------|
F |-----0--------------0-------------0-------------0----------------|
C#|-----------0--------------0--------------0-------------0---------|
G#|-----------------------------------------------------------------|
C#|---5---5----------5---5---------5---5---------5---5--------------|
END

C#|---0-------0---0-------0---0------0---0------0----0------0----0-------0----|
F#|-------0-----------0-----------0----------0-----------0------------0-------|
F |---0-----0-----0-----0-----0-----0----0-----0-----0-----0-----0------0-----|
C#|---------------------------------------------------------------------------|
G#|-0---0-------0---0------------------------------0---0-------0---0----------|
C#|-------------------------5---5------5---5----------------------------------|


VERSE 2

Play twice till "END"
C#|-----0--------0---------0-----0--------0-----0--------0---|
F#|----------0---------0--------------0--------------0-------|
F |-----0------0---------0-------0------0-------0------0-----|
C#|---0---0--------------------------------------------------|
G#|-----------------2----------0---0----------0---0----------|
C#|----------------------------------------------------------|

C#|---------0--------0------0--------0-----0--------0--------|
F#|-----0--------0---------------0--------------0------------|
F |-------0--------0--------0------0-------0------0----------|
C#|----------------------------------------------------------|
G#|---2---------0--------------------------------------------|
C#|-----------------------0---0----------0---0---------------|
END

C#|-----0--------0-----0---------0---|
F#|----------0---------------0-------|
F |-----0------0-------0-------0-----|
C#|----------------------------------|
G#|----------------------------------|
C#|---0---0----------0---0-----------|

Repeat everything starting from "VERSE 1" 


OUTRO 

play after you repeated from "VERSE 1" 
C#|---------0--------0--------0---------0-----0-------0-----0-------0---|
F#|-----0--------0--------0---------0-------------0-------------0-------|
F |-------0--------0--------0---------0-------0-----0-------0-----0-----|
C#|---------------------------------------------------------------------|
G#|---------------------2---------0-------------------------------------|
C#|---5-------0-----------------------------0---0---------0---0---------|

C#|---------0--------0--------0---------0-----0-------0-----0-------0---|
F#|-----0--------0--------0---------0-------------0-------------0-------|
F |-------0--------0--------0---------0-------0-----0-------0-----0-----|
C#|---------------------------------------------------------------------|
G#|---------------------2---------0-------------------------------------|
C#|---5-------0-----------------------------0---0---------0---0---------|

C#|-----0-------------0---|
F#|---------0---0-----0---|
F |-----0-----0-----------|
C#|-----------------------|
G#|-----------------------|
C#|---0---0-----------0---|



************************************

| /   slide up
| \   slide down
| h   hammer-on
| p   pull-off
| ~   vibrato
| +   harmonic
| x   Mute note
| b   Bend
| pb  Pre-bend
| br  Bend release
| pbr Pre-bend release
| brb Bend release bend

************************************
Tap to rate this tab
 
# A B C D E F G H I J K L M N O P Q R S T U V W X Y Z