Song name
# A B C D E F G H I J K L M N O P Q R S T U V W X Y Z

The Paper Kites - Living Colour tab

Tuning: Standard


Verse
e|------------------------------------------------------------------------|
B|------------------------------------------------------------------------|
G|--2-2-2-2-2-2-2-2-2-2-2-2-2-2-2-2-2-2-2-2-2-2-2-2-2-2-2-2-2-2-2-2-------|
D|-2-2-2-2-2-2-2-2-2-2-2-2-2-2-2-2-2-2-2-2-2-2-2-2-2-2-2-2-2-2-2-2--------|
A|------------------------------------------------------------------------|x4
E|------------------------------------------------------------------------|

Bridge
e|------------------------------------------------------------------------|
B|-5p3-1-------1----------------------------------------------------------|
G|-------2-0-2---2-0-2----0--2--0--2-2h5p2--------------------------------|
D|---------------------2-2-2---2-2----------------------------------------|
A|------------------------------------------------------------------------|x3
E|------------------------------------------------------------------------|

e|------------------------------------------------------------------------|
B|-5p3-1-------1-------1--------------------------------------------------|
G|-------2-0-2---2-0-2---0h2----------------------------------------------|
D|------------------------------------------------------------------------|
A|------------------------------------------------------------------------|
E|------------------------------------------------------------------------|
Tap to rate this tab
# A B C D E F G H I J K L M N O P Q R S T U V W X Y Z