Song name
# A B C D E F G H I J K L M N O P Q R S T U V W X Y Z

The Paper Kites - Halcyon chords

Highlighted       Show chord diagrams
-----------------------------------------------------------------------------
                             Halcyon - The Paper Kites
-----------------------------------------------------------------------------

Tabbed by: Bryn Romero
E-mail: romero.bryn@gmail.com

Tuning: Standard

Original Key: D


*NOTE: I play the start of the chorus like this:

      A     D     A

e|----0-----2-----5----|
B|----2-----3-----2----|
G|----2-----2-----2----|
D|----2-----0-----2----|
A|---------------------|
E|---------------------|

But I realized that some people don't like unnecessary barre chords, so I
wrote the chords down just as A-D-A. If you are comfortable with barring, I
find the song sounds better with the high A note.



Intro/End of Chorus:

      D                             A     Bm

e|----10-----9-----7----------7-----5-----2----|
B|----7------7-----7----------7-----2-----3----|
G|----7------7-----7----------7-----2-----4----|
D|----0------0-----0----------0-----2-----4----|
A|----------------------------------------2----|
E|----------------------------------------2----|


Verse 1:

        D                    A      Bm    A

You're free, a lover sinking in the sea 

    D                      A        Bm               A

And we will let the water fill our lungs and sleep

 D                   A   Bm    A

Love, we go down, we go down

  D                      A    Bm

Breathe, it's over now, over now


Chorus:

A   D   A            D

We can love, we can love

A   D   A           Bm D G

We can love, we can love

G                                     D

And the birds will sing our song in Halcyon


Verse 2:

        D                     A      Bm   A

You're free a love is coming home to me

     D                        A    Bm

The sea will pull our bodies down into the deep

 D                   A   Bm    A

Love, we go down, we go down

  D                      A    Bm

Breathe, it's over now, over now


Chorus:

A   D   A            D

We can love, we can love

A   D   A           Bm D G

We can love, we can love

G                                     D

And the birds will sing our song in Halcyon

(Play the Intro for the next part)

And the birds will sing out song
The birds will all sing out
The birds will all sing out
The birds will sing out song
The birds will all sing out



A   D   A            D

We can love, we can love

A   D   A           Bm D G

We can love, we can love

G                                     D

And the birds will sing our song in Halcyon

Tap to rate this tab
# A B C D E F G H I J K L M N O P Q R S T U V W X Y Z