Guitaretab - guitar tabs
Song name
# A B C D E F G H I J K L M N O P Q R S T U V W X Y Z

The Parlor Mob - Hard Times tab

Hard Times
By The Parlor Mob

E|---------------------------------------|
B|------7~-5~-------7~-5~----------------|
G|------7~-5~-------7~-5~----------------|
D|------------------------------5--------|
A|--0-0-------0-0-0-------3/5-7---7-5\3--|
E|---------------------------------------|

E|--------------------------------------------------|3X
B|o------5~-------7~-5~-------7~-5~----------------o|
G|-------5~-------7~-5~-------7~-5~-----------------|
D|----------------------------------------5---------|
A|o--0-0----0-0-0-------0-0-0-------3/5-7---7-5\3-o|
E|--------------------------------------------------|

E|---------------|--------|3X
B|o-KEEP-PLAYING-|-------o|
G|--THIS-A-NOTE--|--------|
D|---THRU-VERSE--|--5/7---|
A|o---0~-0-0-0---|--5/7--o|
E|---------------|--3/5---|

E|------------|---------------|-------10~--|--10-10-9-9-8-8--|
B|------------|---------------|-------10~--|--10-10-9-9-8-8--|
G|------------|---------------|----9~-9~---|--9--9--9-9-8-8--|
D|--x-7-x-7~--|--7-7----------|----9~-9~---|-----------------|
A|--x-7-x-7~--|--7-7-(slide)--|--0-7~------|-----------------|
E|--x-5-x-5~--|--5-5-10\\\\\--|------------|-----------------|

E|---------------------------------------|
B|------7~-5~-------7~-5~----------------|
G|------7~-5~-------7~-5~----------------|
D|------------------------------5--------|
A|--0-0-------0-0-0-------3/5-7---7-5\3--|
E|---------------------------------------|

E|--------------------------------------------------|
B|-------5~-------7~-5~-------7~-5~-----------------|
G|-------5~-------7~-5~-------7~-5~-----------------|
D|----------------------------------------5---------|
A|---0-0----0-0-0-------0-0-0-------3/5-7---7-5\3--|
E|--------------------------------------------------|

E|---------------|--------|
B|--KEEP-PLAYING-|--------|
G|--THIS-A-NOTE--|--------|
D|---THRU-VERSE--|--5/7---|
A|----0~-0-0-0---|--5/7---|
E|---------------|--3/5---|

E|-----------------------------|----------------------------------------|
B|-----------------------------|----------------------------------------|
G|-----------------------------|--------5~-7~--------------5------------|
D|--5-7~--------5-5-7-5--------|---------------------5-5-7---7-5\3------|
A|----------------------7-5\3--|--3~-5~-------0-3-5~---------------3/5--|
E|-------0-3-5~----------------|----------------------------------------|

E|-------------------8-------------|
B|--------8~-6~-8b10---8b9b8-------|
G|--5~-7~--------------------------|
D|---------------------------------|
A|---------------------------------|
E|---------------------------3/5~--|

E|---------------|--------|
B|--KEEP-PLAYING-|--------|
G|--THIS-A-NOTE--|--------|
D|---THRU-VERSE--|--5/7---|
A|----0~-0-0-0---|--5/7---|
E|---------------|--3/5---|

E|-----------------------------|-------10~--|--10-10-9-9-8-8--|
B|-----------------------------|-------10~--|--9--9--9-9-8-8--|
G|-----------------------------|----9~-9~---|--9--9--9-9-8-8--|
D|--5-7~--------------5--------|--x-9~-9~---|-----------------|
A|--------------5-5-7---7-5\3--|--x-7~------|-----------------|
E|-------0-3-5~----------------|--x---------|-----------------|

E|---------------|---------------------------------------|
B|---------------|------7~-5~-------7~-5~----------------|
G|---------------|------7~-5~-------7~-5~----------------|
D|------5--------|------------------------------5--------|
A|--5-7---7-5\3--|--0-0-------0-0-0-------3/5-7---7-5\3--|
E|---------------|---------------------------------------|

E|--------------------------------------------------|2X
B|o------5~-------7~-5~-------7~-5~----------------o|
G|-------5~-------7~-5~-------7~-5~-----------------|
D|----------------------------------------5---------|
A|o--0-0----0-0-0-------0-0-0-------3/5-7---7-5\3-o|
E|--------------------------------------------------|
[ Tab from: http://www.guitaretab.com/t/the-parlor-mob/182687.html ]
E|----------------------------------|--12-12-12-12-12-12--|
B|------7~-5~-------7~-5~---7-7-5~--|--12-12-12-12-12-12--|
G|------7~-5~-------7~-5~---7-7-5~--|--9--9--9--9--99----|
D|----------------------------------|---------------------|
A|--0-0-------0-0-0-------0---------|---------------------|
E|----------------------------------|---------------------|

E|-------|------------------|------------------|-------|
B|o------|--5-5~-6-6~-7-7~--|--7-7~-8-8~-9-9~--|--9-9--|
G|---5~--|--5-5~-6-6~-7-7~--|--7-7~-8-8~-9-9~--|--9-9--|
D|---5~--|--5-5~-6-6~-7-7~--|--7-7~-8-8~-9-9~--|--9-9--|
A|o--3~--|------------------|------------------|-------|
E|-------|------------------|------------------|-------|

E|---------------------------|--13-13-13-13-13-13--|--13-13-13-13-13-13---|2X
B|---------------------------|---------------------|---------------------o|
G|---------------------------|---------------------|----------------------|
D|--5~--5-5~--5-5~--5-5~--5--|---------------------|----------------------|
A|--5~--5-5~--5-5~--5-5~--5--|---------------------|---------------------o|
E|--3~--3-3~--3-3~--3-3~--3--|---------------------|----------------------|

E|--------|----------------------------|------------------------------|-----------|
B|--7-5~--|--------7-5~----------------|------5~-------7-5~---7-7-5~--|-----------|
G|--7-5~--|--------7-5~----------------|------5~-------7-5~---7-7-5~--|--(slide)--|
D|--------|-------------------5--------|------------------------------|--////13~--|
A|--------|--0-0-0------3/5-7---7-5\3--|--0-0----0-0-0------0---------|-----------|
E|--------|----------------------------|------------------------------|-----------|

E|------------------|------------------|---------------|--------|
B|--KEEP-PLAYING----|------------------|---------------|--------|
G|--THIS-A-NOTE-A---|------------------|---------------|--------|
D|--FEW-MORE-TIMES--|-------5-7~-------|------5--------|--------|
A|----0~-0-0-0------|------------------|--5/7---7-5\3--|--------|
E|------------------|--3-5~------3-5~--|---------------|--3-5~--|

E|------------------|-------|----------------|
B|--KEEP-PLAYING----|-------|----------------|
G|--THIS-A-NOTE-A---|-------|--4~-6~---------|
D|--FEW-MORE-TIMES--|--5/7--|--5~-7~---------|
A|----0~-0-0-0------|--5/7--|----------------|
E|------------------|--3/5--|--------0-3-5~--|

E|-----------------|----------------------------------------|
B|-----------------|----------------------------------------|
G|-----------------|--------5~-7~--------------5------------|
D|--5-5-7-5--------|---------------------5-5-7---7-5\3------|
A|----------7-5\3--|--3~-5~-------0-3-5~---------------3/5--|
E|-----------------|----------------------------------------|

E|-------------------8-------------|
B|--------8~-6~-8b10---8b9b8-------|
G|--5~-7~--------------------------|
D|---------------------------------|
A|---------------------------------|
E|---------------------------3/5~--|

E|------------------|--------|---------------|-----------------|
B|--KEEP-PLAYING----|--------|---------------|-----------------|
G|--THIS-A-NOTE-A---|--------|---------------|-----------------|
D|--FEW-MORE-TIMES--|--5/7~--|--5-7~---------|--------5--------|
A|----0~-0-0-0------|--5/7~--|---------------|--3/5-7---7-5\3--|
E|------------------|--3/5~--|-------0-3-5~--|-----------------|

E|-------10~--|--10-10-9-9-8-8--|------------------|-----------------|
B|-------10~--|--10-10-9-9-8-8--|--7-5~------7-5~--|-----------------|
G|----9~-9~---|--10-10-9-9-8-8--|--7-5~------7-5~--|-----------------|
D|--x-9~-9~---|-----------------|------------------|--------5--------|
A|--x-7~------|-----------------|-------0-0-0------|--3/5-7---7-5\3--|
E|--x---------|-----------------|------------------|-----------------|

E|------------|--------------|------------|
B|--------5~--|--------7-5~--|----7-7-5~--|
G|--------5~--|--------7-5~--|----7-7-5~--|
D|------------|--------------|------------|
A|--0-0-0-----|--0-0-0-------|--0---------|
E|------------|--------------|------------|
Related for Hard Times tab