Song name
# A B C D E F G H I J K L M N O P Q R S T U V W X Y Z

The Parlor Mob - Bullet tab

Main riff:
e---------------------------------------------------------------------------|
b---------------------------------------------------------------------------|
g----------5p3---------3-5p3---------5p3---------3-5p3----------------------|
d--5p3-5p3-----5p3-5p3-------5p3-5p3-----5p3-5p3----------------------------|
a--------------------------------------------------------------3p1----------|
e------------------------------------------------------3p1-3p1--------------|

e---------------------------------------------------------------------------|
b---------------------------------------------------------------------------|
g---------------------------------------------------------------------------|
d--------------------------------------------3-3-3-3-3-3-3-3-3-3-3-3--------|
a----------1-3p1---------3p1---------1-3p1---3-3-3-3-3-3-3-3-3-3-3-3--------|
e--3p1-3p1-------3p1-3p1-----3p1-3p1---------1-1-1-1-1-1-1-1-1-1-1-1--------|

Chorus:
e---------------------------------------------------------------------------|
b---------------------------------------------------------------------------|
g---------------------------------------------------------------------------|
d--3-5-5-3-5---3-5-5-3-5---3-5-5-3-5------3-5-5-3-5---3-5-5-3-5p3-5p3-------|
a--3-5-5-3-5---3-5-5-3-5---3-5-5-3-5------3-5-5-3-5---3-5-5-3---------------|
e--1-3-3-1-3---1-3-3-1-3---1-3-3-1-3------1-3-3-1-3---1-3-3-1---------------|

e---------------------------------------------------------------------------|
b---------------------------------------------------------------------------|
g-------------------------------5p3-------------------------3-3-3-3-3-3-----|
d--3-5-5-3--5p3-5p3---3-5-5-3-5-----3-3-3-3-3-3-5-5-5-5-5-5-3-3-3-3-3-3-----|
a--3-5-5-3------------3-5-5-3-5-----3-3-3-3-3-3-5-5-5-5-5-5-1-1-1-1-1-1-----|
e--1-3-3-1------------1-3-3-1-3-----1-1-1-1-1-1-3-3-3-3-3-3-----------------|

e--------------------------------------------|
b--------------------------------------------|
g--5-5-5-5-5-5---------------------------5---|
d--5-5-5-5-5-5-3-3-3-3-3-3-5-5-5-5-5-5---5---|
a--3-3-3-3-3-3-3-3-3-3-3-3-5-5-5-5-5-5---3---|
e--------------1-1-1-1-1-1-3-3-3-3-3-3-------|

Solo: variations of penatonic in G
Tap to rate this tab
 
# A B C D E F G H I J K L M N O P Q R S T U V W X Y Z