Song name
# A B C D E F G H I J K L M N O P Q R S T U V W X Y Z

The Parlor Mob - Dead Wrong tab

Help us improve GuitareTab! Take a short survey!
Verse:
e---------------------------------------------------------------------------|
b---------------------------------------------------------------------------|
g---------------------------------------------------------------------------|
d---------------------------------------------------------------------------|
a--3-----------------1-----------------3-----------------1------------------|
e----1-3-3-1-3-3-3-3---3-3-3-1-3-3-3-3---1-3-3-1-3-3-3-3---3-3-3-1-3-3-3-3--|

Chorus: (soloing in G penatonic throughout)
e---------------------------------------------------------------------------|
b------------4~-------------4~----------------------------------------------|
g--3-5-3-5-3------3-5-3-5-3------5---3------7------5---3--------------------|
d--------------------------------5---3------7------5---3--------------------|
a--------------------------------3---1------5------3---1--------------------|
e---------------------------------------------------------------------------|

Bridge:
e--------------------------3------------------------------------------------|
b----------------------3-6--------------------------------------------------|
g------------------3-5------------------------------------------------------|
d------------3-3h5-----------------------3-3h5-3----------------------------|
a------1-3-5-----------------------1-3-5---------5-4-3-1--------------------|
e--1-3-------------------------1-3------------------------------------------|
Related for Dead Wrong tab