Guitaretab - guitar tabs
Song name
# A B C D E F G H I J K L M N O P Q R S T U V W X Y Z

The Pax Cecilia - Mdcclxxv tab

Band  The Pax Cecelia
Album  Nouveau a Theatre of the Air
Song  MDCCLXXV
Tabbed by  Bryan H. and Ty B.
Tuning  Standard

/ - slide up to _____
\ - Slide down to _____


(Use pima & let all notes ring if possible)
|----------------------------------|
|-2-2-2-2/3-----8------5-----5-----|
|-----------0------0-----0-----0---|
|-------------0------0-----0-----0-|
|-2-2-2-2/5-----10-----7-----7-----|
|----------------------------------|


|------------------------------------|
|-10-----12-----12-----12-----12-----|
|----0------0------0------0------0---|
|------0------0------0------0------0-|
|-12-----14-----14-----14-----14-----|
|------------------------------------|

[ Tab from: http://www.guitaretab.com/t/the-pax-cecilia/75420.html ]
|----------------------------------|
|-2-2-2-2/3-----8------5-----5-----|
|-----------0------0-----0-----0---|
|-------------0------0-----0-----0-|
|-2-2-2-2/5-----10-----7-----7-----|
|----------------------------------|


|------------------------------------|
|-10-----12-----12-----12-----12-----|
|----0------0------0------0------0---|
|------0------0------0------0------0-|
|-12-----14-----14-----14-----14-----|
|------------------------------------|


|----------------------------------|
|-2-2-2-2/3-----8------5-----5-----|
|-----------0------0-----0-----0---|
|-------------0------0-----0-----0-|
|-2-2-2-2/5-----10-----7-----7-----|
|----------------------------------|


|----------------------|
|-10-----12-----12-----|
|----0------0------0---|
|------0------0------0-|
|-12-----14-----14-----|
|----------------------|


|------------------------------------|
|-15\12\10\8-\5\3-2------------------|
|------------------------------------|
|------------------------------------|
|-17\14\12\10\7\5---0----------------|
|------------------------------------|
Related for Mdcclxxv tab