Song name
# A B C D E F G H I J K L M N O P Q R S T U V W X Y Z

The Peach Kings - Thieves And Kings tab

The Peach Kings - Thieves and Kings
tabbed by Langustyn

you may know from Boardwalk Empire S04 intro/previously

my first tab :) pls rate and make corrections...

intro/main riff

e----------------------------------------|
B----------------------------------------|
G----------------------------------------|
D----------------------------------------|
A---777-5-7------0-777-5-5-7-------------|
E-0---------5s3--------------5-0-4-0-3---|

bridge

e-------------------------------------------------------|
B-------------------------------------------------------|
G-------------------------------------------------------|
D-----------------5-------------------------------5-----|
A-5-77-5-777-5-775----5-777-5-777-5-7-7-5-7-5-7-5---7---|
E-0-------------------0-000-0-000-0-0-0-----------------|

verse chords

 E7#9 G A E E7#9

 E7#9 G A E

listen and watch vid for rhytm and strokes...
http://www.youtube.com/watch?v=FWumruV56DI

 E7#9      G       A       E
e-----  e--3--  e--5--  e-----|
B--8--  B--3--  B--5--  B-----|
G--7--  G--4--  G--6--  G--1--|
D--6--  D--5--  D--7--  D--2--|
A--7--  A--5--  A--7--  A--2--|
E--0--  E--3--  E--5--  E--0--|
Tap to rate this tab
# A B C D E F G H I J K L M N O P Q R S T U V W X Y Z