Song name
# A B C D E F G H I J K L M N O P Q R S T U V W X Y Z

The Penguin Cafe Orchestra - The Sound Of Someone You Love Whos Going Away tab

-----------------------------------------------------------------------------
 THE SOUND OF SOMEONE YOU LOVE WHO'S GOING AWAY... - Penguin Cafe Orchestra
-----------------------------------------------------------------------------

Band: Penguin Cafe Orchestra
Song: The Sound Of Someone You Love Who's Going Away And It Doesn't Matter
Album: Music From The Penguin Cafe (1976)

Tabbed by: crimson-dync (soldync@yahoo.com.ar)
Tuning: Standard


   G                                 G/F#
e|-7---------7-----8p7-------7-----|-5---------7-----5---------5-----|
B|-------0---------------0---------|-------3---------------3---------|
G|*----0-------0-------0-------0---|-----0-------0-------0-------0---|
D|*5-------5-------5-------5-------|-4-------4-------4-------4-------|
A|---------------------------------|---------------------------------|
E|---------------------------------|---------------------------------|

   Em              Am7               G
e|-3---------2-----3---------3-----|---------------------------------|
B|-------1---------1-----1---------|-0---------1-----3---------3-----|
G|-----0-------0-------------------|-------0---------------0-----0--*|
D|-2-------2-----------2-------2---|-----0-------0-------0----------*|
A|-----------------0-------0-------|---------------------------------|
E|---------------------------------|-3-------3-------3-------3--(2)--|

   Em7             A7                D
e|-----------------0---------0-----|-2---------0-----|
B|-3---------3-----------2---------|-------3-----0---|
G|-------0-------------0-------0---|-----2-----------|
D|-----2-------2-----------2-------|-0-------0-------|
A|---------2-------0---------------|-----------------|
E|-0-------------------------------|-----------------|

   Gmaj7  /B
e|-2---------2-----2---------2-----|
B|-------0-------0-------0-------0-|
G|-----0-------0-------0-------0---|
D|-----------------0---------------|
A|---------2---------------2-------|
E|-3-------------------------------|

   Em7                               A7
e|---------------------------------|---------------------------------|
B|-0h3-------3-----0h3-------3-----|-----3-----2-----0---------0-----|
G|*------0-----------------------0-|-----------------------0-------0*|
D|*----2-------2-------2-------2---|-----2-------2-------2-------2--*|
A|---------2---------------2-------|-0-------0-------0-------0-------|
E|-0---------------0---------------|---------------------------------|

   Em7                               A7
e|---------------------------------|-----------------0---------------|
B|-0h3-------3-----0h3-------3-----|-2---------3-----2---------2-----|
G|-------0-----------------------0-|-------0---------------0---------|
D|-----2-------2-------2-------2---|-----2-------2-------2-------2---|
A|---------2---------------2-------|-0-------0-------0-------0-------|
E|-0---------------0---------------|---------------------------------|

   Em7                               A7
e|---------------------------------|---------------------------------|
B|-0h3-------3-----0h3-------3-----|-2---------2h3---3---------------|
G|-------0-----------------------0-|-------0-------------------------|
D|-----2-------2-------2-------2---|-----2---------------------------|
A|---------2---------------2-------|-0-------0-----------------------|
E|-0---------------0---------------|---------------------------------|
Tap to rate this tab
# A B C D E F G H I J K L M N O P Q R S T U V W X Y Z