Song name
# A B C D E F G H I J K L M N O P Q R S T U V W X Y Z

The Perishers - Trouble Sleeping tab

  Trouble Sleeping - The Perishers
-------------------------------------------------------------------------------
Tabbed by: Tom4afc
Email:Tom4afc@hotmail.com

Tuning: Standard

e|---------------------------------------------------------|
B|---------------------------------------------------------|
G|-------------------8/10-7----8/10-777--10--8--7--8-------|
D|----888----8-7-8-----------------------------------------|  
A|---------------------------------------------------------|
E|---------------------------------------------------------|

e|---------------------------------------------------------|
B|---------------------------------------------------------|
G|-----------8/10-7----8/10----777--10--8--7--8------------|
D|----8878-------------------------------------------------|  X2
A|---------------------------------------------------------|
E|---------------------------------------------------------|

e|---------------------------------------------------------|
B|---------------------------------------------------------|
G|-----------8/10-7----10h12-------------------------------|
D|----8878-------------------------------------------------|  
A|---------------------------------------------------------|
E|---------------------------------------------------------|





************************************

| /   slide up
| \   slide down
| h   hammer-on
| p   pull-off
| ~   vibrato
| +   harmonic
| x   Mute note
| b   Bend
| pb  Pre-bend
| br  Bend release
| pbr Pre-bend release
| brb Bend release bend

************************************
Tap to rate this tab
# A B C D E F G H I J K L M N O P Q R S T U V W X Y Z