Song name
# A B C D E F G H I J K L M N O P Q R S T U V W X Y Z

The Pete And Mike Band - Waiting On The Summer tab

This is what the acoustic guitar plays in the background for the whole song

Intro/verse/solo:


-----5-----5-----6-6--6-6-----5-----5--5------------|
-----6-----6-----6-6--6-6-----5-----5--6------------|
-----7-----7-----7-7--7-7-----6-----6--7------------|
-----7-----7-----8-8--8-8-----7-----7--7------------|
--5--5--5--5-----8-8--8-8-----7-----7--5------------|
--------------6--6-6--6-6--5--5--5--5--------5-8----|

                                            'cause I'm waiting....
-----5-----5-----6-6--6-6-----5-----5--5------------|
-----6-----6-----6-6--6-6-----5-----5--6------------|
-----7-----7-----7-7--7-7-----6-----6--7------------|
-----7-----7-----8-8--8-8-----7-----7--7------------|
--5--5--5--5-----8-8--8-8-----7-----7--5----------5-|
--------------6--6-6--6-6--5--5--5--5--------5-8----|


Chorus:

       We can make everything all right, but not tonight.
--6----------5----------5----------5------|
--6----------6----------5----------6------|
--7----------7----------6----------7------|
--8----------7----------7----------7------|
--8----------5----------7----------5------|
--6---------------------5-----------------|

       We can make everything all right, in the summer time.
--6----------5----------5----------5------|
--6----------6----------5----------5------|
--7----------7----------6----------6------|  back to verse
--8----------7----------7----------7------|
--8----------5----------7----------7------|
--6---------------------5----------5------|

Link to Pete and Mike Band's website: http://www.myspace.com/peteandmike
Tap to rate this tab
# A B C D E F G H I J K L M N O P Q R S T U V W X Y Z