Song name
# A B C D E F G H I J K L M N O P Q R S T U V W X Y Z

The Pettit Project - 99 Lives tab

--------------------------------------------------------------------------------------
			     99 Lives - The Pettit Project
--------------------------------------------------------------------------------------


Tabbed by: lovejon2death
Email: jlundrigan@rogers.com 

Tuning: D G C F A D    (D standard/one whole step down)

e|---------------------------------------------------------------------------|
B|---------------------------------------------------------------------------|
G|---------------------------------------------------------------------------|
D|--2-------11----7-----10-----9-----6-----4-----6---------------------------|
A|--2-------11----7-----10-----9-----6-----4-----6---------------------------|
E|--0-------9-----5-----8------7-----4-----2-----4---------------------------|

e|---------------------------------------------------------------------------|
B|---------------------------------------------------------------------------|
G|---------------------------------------------------------------------------|
D|--2-------11----7-----10-----9-----6-----5-----4---------------------------|
A|--2-------11----7-----10-----9-----6-----5-----4---------------------------|
E|--0-------9-----5-----8------7-----4-----3-----2---------------------------|




(THIS TAB DOES NOT REPRESENT TIMING OR NUMBER OF NOTES PLAYED. ONLY CHORD FORMATION.

======================================================================================
Tap to rate this tab
 
# A B C D E F G H I J K L M N O P Q R S T U V W X Y Z