Song name
# A B C D E F G H I J K L M N O P Q R S T U V W X Y Z

The Pettit Project - 99 Lives tab

-------------------------------------------------------------------------------
                             99 Lives - The Pettit Project (Love You To Death)
-------------------------------------------------------------------------------
Tabbed by: Justin Gradkowski
E-mail: shima.tetsuo@hotmail.com

Tuning: Drop D

I recenly uploaded a video of myself playing this on YouTube here
(http://www.youtube.com/watch?v=Vw6vRSxPrh0) and I've been asked for tabs from a few 
people so I thought I'd give
it a go and write my first guitar tab! (sorry in advance if it's poorly written or hard to
understand). Fairly sure it's accurate. :) Enjoy!

INTRO x2
e|---------------------------------------------------------------------------|
B|---------------------------------------------------------------------------|
G|---------------------------------------------------------------------------|
D|00000000999555887777777744422244-------------------------------------------|
A|00000000999555887777777744422244-------------------------------------------|
D|00000000999555887777777744422244-------------------------------------------|

VERSE (only bass first time through, guitar comes in afterwards.)
"Time for another video game analogy"
e|---------------------------------------------------------------------------|
B|---------------------------------------------------------------------------|
G|777---444-222---777---333-222---777---444-222------------------------------|
D|777---444-222---777---333-222---777---444-222---55555555-5-5-5-5-----------|
A|555---222-000---555---111-000---555---222-000---55555555-5-5-5-5-----------|
D|------------------------------------------------55555555-5-5-5-5-----------|
                                                           * * * *
CHORUS x3 (listen to song for strumming rhythm)
"You've gotta be, an enemy, like Wario or Dr.Wiley"
e|---------------------------------------------------------------------------|
B|---------------------------------------------------------------------------|
G|777777444444222222---------------------------------------------------------|
D|777777444444222222555555---------------------------------------------------|
A|555555222222000000555555---------------------------------------------------|
D|------------------555555---------------------------------------------------|

"You're the princess and last boss at the same time" x3
e|---------------------------------------------------------------------------|
B|---------------------------------------------------------------------------|
G|---------------------------------------------------------------------------|
D|5-5-54-2-22-0-000----------------------------------------------------------|
A|5-5-54-2-22-0-000----------------------------------------------------------|
D|5-5-54-2-22-0-000----------------------------------------------------------|

Only bass playing the verse chords again and then...
"And make you fall in love with me, timing is key"
e|---------------------------------------------------------------------------|
B|------------------------5--3-/8--7-----------------------------------------|
G|---------------------------------------------------------------------------|
D|5555555-5-5-5-5-5555555----------------------------------------------------|
A|5555555-5-5-5-5-5555555----------------------------------------------------|
D|5555555-5-5-5-5-5555555----------------------------------------------------|
          * * * *

Another chorus and then into the Mario Underground theme:
e|---------------------------------------------------------------------------|
B|---------------------------------------------------------------------------|
G|7-7-7-7-7-7------7-7-7-7-7-7-----------------------------------------------|
D|7-7-7-7-7-7------7-7-7-7-7-7-----------------------------------------------|
A|5-5-5-5-5-5------5-5-5-5-5-5-----------------------------------------------|
D|---------------------------------------------------------------------------|
  * * * * * *      * * * * * *

All palm muted:
e|---------------------------------------------------------------------------|
B|---------------------------------------------------------------------------|
G|---------------------------------------------------------------------------|
D|12-12-9-9-10-10------12-12-9-9-10-10---------------------------------------|
A|12-12-9-9-10-10------12-12-9-9-10-10---------------------------------------|
D|12-12-9-9-10-10------12-12-9-9-10-10---------------------------------------|

e|---------------------------------------------------------------------------|
B|---------------------------------------------------------------------------|
G|---------------------------------------------------------------------------|
D|7-7-4-4-5-5------7-7-4-4-5-5------------------------------------0~---------|
A|7-7-4-4-5-5------7-7-4-4-5-5------------------------------------0~---------|
D|7-7-4-4-5-5------7-7-4-4-5-5------5-4-0-2--4--5--9--8--2--5--4--0~---------|
                                                                  ^ (let ring)

"Up up down down left right left right" - Breakdown
e|---------------------------------------------------------------------------|
B|---------------------------------------------------------------------------|
G|---------------------------9-9-9-9-9-9-9-9---------------------------------|
D|0-0-xx-x-0-0-xx-x-0-0-xx-x-x-x-x-x-x-x-x-x---------------------------------|
A|0-0-xx-x-0-0-xx-x-0-0-xx-x-7-7-7-7-7-7-7-7---------------------------------|
D|0-0-xx-x-0-0-xx-x-0-0-xx-x-------------------------------------------------|

Variation of chorus strumming near the end of the song:
"I'm learning from mistakes I've made each time I die, I'm fine, I'll retry"
e|---------------------------------------------------------------------------|
B|---------------------------------------------------------------------------|
G|7-7-7-77-4-4-4-44-2-2-2-22-------------------------------------------------|
D|7-7-7-77-4-4-4-44-2-2-2-22-----5-----5-------------------------------------|
A|5-5-5-55-2-2-2-22-0-0-0-00-----5-----5-------------------------------------|
D|---------------------------55555-55555-------------------------------------|
                             ****  ****

************************************
| *   palm mute
| /   slide up
| x   mute string
************************************
Tap to rate this tab
# A B C D E F G H I J K L M N O P Q R S T U V W X Y Z