Song name
# A B C D E F G H I J K L M N O P Q R S T U V W X Y Z

The Pheromones - Stronger tab

Bandsite: http://www.thepheromones.nl/
Facebook: https://www.facebook.com/pages/The-Pheromones/467899593247810

This sounds about right.. I know that they play it slightly different, but this is
the best I could do.

Main riff:
e -------------------------------------------------------------|
B -------------------------------------------------------------|
G --66666-4-66666--66666-4-66666--44444-2-44444----------------|
D --66666-4-66666--66666-4-66666--44444-2-44444--44444-2-44444-|
A --44444-2-44444--44444-4-44444--22222-0-22222--44444-2-44444-|
E -----------------------------------------------22222-0-22222-|

Chorus

e ---------------------------------------------------------------------------------------------|
B ---------------------------------------------------------------------------------------------|
G -11b12r11p9---------9-----11b12r11p9---------9-11---11b12r11p9---------9--------9--------9---|
D ------------11-9-11--11--------------11-9-11-------------------11-9-11--11-9-11--11-9-11--11-|
A ---------------------------------------------------------------------------------------------|
E ---------------------------------------------------------------------------------------------|

e ------------------------------------------------------------------------------------------|
B ------------------------------------------------------------------------------------------|
G -11b12r11p9---------9---11b12r11p9---------9-11---11b12r11p9---------9--11b12~~~~~~~~~~~--|
D ------------11-9-11--11------------11-9-11-------------------11-9-11--11------------------|
A ------------------------------------------------------------------------------------------|
E ------------------------------------------------------------------------------------------|

Solo
Haven't figured it out yet..
Listen to the song to get the right parts on the right time.
Tap to rate this tab
 
# A B C D E F G H I J K L M N O P Q R S T U V W X Y Z