Song name
# A B C D E F G H I J K L M N O P Q R S T U V W X Y Z

The Phlegmatics - 8246 Elm Park Drive tab

Band: The Phlegmatics
Album: Alumnus
Song: 8246 Elm Park Drive


Clean:

e|--------------------------------------------------------------|
B|--------3----------3------------7---8---7---------------------|
G|----------2----------2--------7---7---7---7-------------------|   X4
D|----0-------0--2-------2---/5---------------------------------|
A|--------------------------------------------------------------|
E|--------------------------------------------------------------|


e|-------2---------2---------2---------2---------2---------2-----|
B|---------3---------3---------3---------3---------3---------3---|
G|----4------4--5------5--4------4--5------5--4------4--5------5-|
D|---------------------------------------------------------------|
A|---------------------------------------------------------------|
E|---------------------------------------------------------------|


e|--------------------------------------------------------------|
B|--------------------------------------------------------------|
G|--------------------------------------------------------------|
D|----2-----2---------------------------------------------------|
A|----2-----3---------------------------------------------------|
E|----0-----0---------------------------------------------------|


e|------3------------------------------3--------------------------|
B|--------3------/-----7----7----/-------3-------/-----7----7-----|
G|----0-----0------------------------0------0---------------------|
D|-------------------9----0--------------------------9----0-------|
A|----------------------------------------------------------------|
E|----------------------------------------------------------------|


e|-------5--------------3--------------5------------------------|
B|---------5--------------3--------------5----------------------|
G|--------------------------------------------------------------|
D|----7------7---/---5------5---/---7------7----------2-----2---|
A|----------------------------------------------------3-----2---|
E|----------------------------------------------------0-----0---|

http://www.thephlegmatics.com
Tap to rate this tab
# A B C D E F G H I J K L M N O P Q R S T U V W X Y Z