The Phoenix Foundation - Buffalo tab

Tuning: eadgbe (standard)

        Bass or Rythym Guitar, played through most of the song.
e|--------------------------------------------------------------------------|
B|--------------------------------------------------------------------------|
G|--------------------------------------------------------------------------|
D|--------------------------------------------------------------------------|
A|----7---7---7---7---7---7---7---7---7---7---7---7---7---7---7---7---7-----|
E|--0---0---0---0---0---0---0---0---0---0---0---0---0---0---0---0---0-------|

2nd Guitar, whole song can be played with 1 guitar, as long as you don't mind jumping around
e|--------------------------------------------------------------------------|
B|--------------------------------------------------------------------------|
G|--------------------------------------------------------------------------|
D|------------9--6-----11--6-----6--9-----6--2-----2--4---------------------|
A|~~~~7---7-----------------------------------------------------------------|
E|~~0---0-------------------------------------------------------------------|

2nd guitar
e|--------------------------------------------------------------------------|
B|--------------------------------------------------------------------------|
G|--------------------------------------------------------------------------|
D|--------2--4--------2--4--------2--4--------2--4--------2--4--------------|
A|--2--4--------2--4--------2--4--------2--4--------2--4--------------------|
E|--------------------------------------------------------------------------|

Continued rythem, or switch back if your solo.
e|--------------------------------------------------------------------------|
B|--------------------------------------------------------------------------|
G|--------------------------------------------------------------------------|
D|--------------------------------------------------------------------------|
A|----7---7---7---7---7---7---7---7---7---7---7---7---7---7---7---7---7-----|
E|--0---0---0---0---0---0---0---0---0---0---0---0---0---0---0---0---0-------|

e|--------------------------------------------------------------------------|
B|--------------------------------------------------------------------------|
G|--------------------------------------------------------------------------|
D|-----------9--6-----11--6-----4--6--4--6/9--6--4--2-----------------------|
A|--------------------------------------------------------------------------|
E|--------------------------------------------------------------------------|

e|--------------------------------------------------------------------------|
B|--------------------------------------------------------------------------|
G|--------------------------------------4--6--------4--6--------4--6--------|
D|--------2--4--------2--4--------4--6--------4--6--------4--6--------4--6--|
A|--2--4--------2--4--------2--4--------------------------------------------|
E|--------------------------------------------------------------------------|

Listen to the song, you'll get it.
e|--------------------------------------------------------------------------|
B|--------------------------------------------------------------------------|
G|--------------4--6--------4--6--------4--6--------4--8--------4--8--------|
D|--------4--6--------4--6--------4--6--------4--6--------4--6--------4--6--|
A|--------------------------------------------------------------------------|
E|--------------------------------------------------------------------------|

Sorry for the lack of structure, just figure this out today. Hope you piece it together well.

************************************

| /   slide up
| \   slide down
| h   hammer-on
| p   pull-off
| ~   vibrato
| +   harmonic
| x   Mute note
| b   Bend
| pb  Pre-bend
| br  Bend release
| pbr Pre-bend release
| brb Bend release bend

************************************
Tap to rate this tab
 
# A B C D E F G H I J K L M N O P Q R S T U V W X Y Z