Song name
# A B C D E F G H I J K L M N O P Q R S T U V W X Y Z

The Phoenix Foundation - Bleaching Sun tab

Hey I looked for this tab for ages but couldn't find anything,
so I finally taught myself scales, figured out the key and then
the chords.

First tab, enjoy and feel free to leave any advice :)

D
Intro

e|---------------------|
B|---------------------|
G|---------------------|
D|---------------------|
A|-----5h7---7p5-------|
E|--------5-5----------|


         D
Well I'm waking up
         A
To your crazy shit
         G
And I'm leaving now
         D
Yes I'm a jumping ship
             Bm
Because your heart is cold
        G
Like a box of beer
       D
And I just can cope
       A
With you my dear

           D
Under the bleaching sun
(Under the bleaching sun)
            A
Out on the washing line
(Out on the washing line)
             G
I'm hanging from my thumbs
(We're hanging from our thumbs)
           D
Until we get us dry
          Bm
And I'm a cooking up
(Yeah I'm a cooking up)
          G
A little kooky scheme
(Cook cook)
        A
Oh to clean their minds, precious minds
             G
The sweetest minds you've ever seen


Bridge part goes something like this...

e|--------------------------------------------------------------------------|
B|--------------------------------------------------------------------------|
G|---0---------------0-------------0--------------0--------0----------------|
D|-----2---------------2-------------2--------------2--------2--------------|
A|-------3-----3---------3-----3-------3-----3--------3--------3------------|
E|---------3-2-------------3-2-----------3-2------------3--------3----------|
Tap to rate this tab
# A B C D E F G H I J K L M N O P Q R S T U V W X Y Z