Song name
# A B C D E F G H I J K L M N O P Q R S T U V W X Y Z

The Phoenix Within - Free Myself tab

The Phoenix Within  Free myself
-------------------------------------------------------
Tuning: Drop D 

Intro:
e|----------------------------------------------------|
B|----------------------------------------------------|
G|-3---5---7------------------------------------------|
D|-3---5---7------------------------------------------|
A|-1---3---5------------------------------------------|
D|----------------------------------------------------|

Verse:
e|----------------------------------------------------|
B|----------------------------------------------------|
G|-7--10--3--5----------------------------------------|
D|-7--10--3--5----------------------------------------|
A|-5--8---1--3----------------------------------------|
D|----------------------------------------------------|

Chorus:
e|----------------------------------------------------|
B|----------------------------------------------------|
G|-3--5--7--------------------------------------------|
D|-3--5--7--------------------------------------------|
A|-1--3--5--------------------------------------------|
D|----------------------------------------------------|

Bridge/outro:
e|----------------------------------------------------|
B|----------------------------------------------------|
G|----------------------------------------------------|
D|-3--5--3--5-----------------------------------------|
A|-3--5--3--5-----------------------------------------|
D|-3--5--1--3-----------------------------------------|

Tap to rate this tab
 
# A B C D E F G H I J K L M N O P Q R S T U V W X Y Z