Song name
# A B C D E F G H I J K L M N O P Q R S T U V W X Y Z

The Phoenix Within - Wolves And Children tab

The Phoenix Within – Wolves & children
-------------------------------------------------------
Tuning: Drop D

Intro:
e|----------------------------------------------------|
B|----------------------------------------------------|
G|-----5----------------------------------------------|
D|-2-0-5----------------------------------------------|
A|-2-0-3----------------------------------------------|
D|-2-0------------------------------------------------|

Verse:
e|----------------------------------------------------|
B|----------------------------------------------------|
G|-----5----------------------------------------------|
D|-2-0-5-0--------------------------------------------|
A|-2-0-3-0--------------------------------------------|
D|-2-0---0--------------------------------------------|

Chorus:
e|----------------------------------------------------|
B|----------------------------------------------------|
G|-----5-7-7------------------------------------------|
D|-5-7-5-7-7------------------------------------------|
A|-5-7-3-5-6------------------------------------------|
D|-5-7------------------------------------------------|

Tap to rate this tab
# A B C D E F G H I J K L M N O P Q R S T U V W X Y Z