Song name
# A B C D E F G H I J K L M N O P Q R S T U V W X Y Z

The Phoenix Within - Yeah Im Over It tab

The Phoenix Within – Yeah, I’m over it
-------------------------------------------------------
Tuning: Drop D

Intro:
e|----------------------------------------------------|
B|----------------------------------------------------|
G|--8-7-----5-7---------------------------------------|
D|--5-5-5-2-5-7---------------------------------------|
A|--7-7-5-2-3-5---------------------------------------|
D|------5-2-------------------------------------------|

Verse:
e|----------------------------------------------------|
B|-3-7-7----------------------------------------------|
G|----------7-----------------------------------------|
D|---4-5----5-----------------------------------------|
A|-3-5-7----7-----------------------------------------|
D|----------------------------------------------------|

Chorus:
e|----------------------------------------------------|
B|----------------------------------------------------|
G|----------5-7---------------------------------------|
D|------5-2-5-7---------------------------------------|
A|------5-2-3-5---------------------------------------|
D|------5-2-------------------------------------------|

Bridge:
e|------3---------------------------------------------|
B|------3---------------------------------------------|
G|-----------7----------------------------------------|
D|---5--2--5-7----------------------------------------|
A|---5--2--5-5----------------------------------------|
D|---5-----5------------------------------------------|

Tap to rate this tab
 
# A B C D E F G H I J K L M N O P Q R S T U V W X Y Z