Song name
# A B C D E F G H I J K L M N O P Q R S T U V W X Y Z

The Phoenix Within - The Damaged tab

The Phoenix Within – The Damaged
-------------------------------------------------------
Tuning: Standard

Intro:
e|----------------------------------------------------|
B|----------------------------------------------------|
G|----------------------------------------------------|
D|-5--7—-9--------------------------------------------|
A|-5--7—-9--------------------------------------------|
E|-3--5—-7--------------------------------------------|

Verse:
e|----------------------------------------------------|
B|----------------------------------------------------|
G|-4--------4-6---------------------------------------|
D|-4-5-7----4-6-5-7-----------------------------------|
A|-2-5-7----2-4-5-7-----------------------------------|
E|---3-5--------3-5-----------------------------------|

Chorus:
e|----------------------------------------------------|
B|----------------------------------------------------|
G|--------4-6-7-9-------------------------------------|
D|-5-7-9----------------------------------------------|
A|-5-7-9--2-4-5-7-------------------------------------|
E|-3-5-7----------------------------------------------|

Bridge:
e|----------------------------------------------------|
B|----------------------------------------------------|
G|-4---7------4---7-----------------------------------|
D|-4-7-7-4----4-7-7-4-5-7-9---------------------------|
A|-2-7-5-4----2-7-5-4-5-7-9---------------------------|
E|---5---2------5---2-3-5-7---------------------------|


Tap to rate this tab
 
# A B C D E F G H I J K L M N O P Q R S T U V W X Y Z