Song name
# A B C D E F G H I J K L M N O P Q R S T U V W X Y Z

The Photo Atlas - Red Orange Yellow tab

Band:The Photo Atlas
Song:Red Orange Yellow

tabbed by:barney14

tuning:standard

http://en.wikipedia.org/wiki/The_Photo_Atlas

this is my first tab so there might be a little mistakes, but i think this is pretty 
close to the song!

   Intro/Verse

|----------------|-----------------|-----------------|--------------|
|-------12-------|-----------------|-------12--------|--------------|
|----------11----|-----------------|----------11-----|--------------| (4x)
|-9-9-9-------12-|-9-9-9-12-14-12--|-9-9-9-------12--|-9-9-9--9-----|
|----------------|-----------------|-----------------|--------------|
|----------------|-----------------|-----------------|--------------|

   Chorus

|----------------------------------|
|----------------------------------|
|-11(15x)-14(8x)-16(8x)------------|  (4x)
|-9-------12-----14----------------|
|----------------------------------|
|----------------------------------|

   Verse

|----------------|-----------------|-----------------|--------------|
|-------12-------|-----------------|-------12--------|--------------|
|----------11----|-----------------|----------11-----|--------------| (4x)
|-9-9-9-------12-|-9-9-9-12-14-12--|-9-9-9-------12--|-9-9-9--9-----|
|----------------|-----------------|-----------------|--------------|
|----------------|-----------------|-----------------|--------------|

   Chorus

|----------------------------------|
|----------------------------------|
|-11(15x)-14(8x)-16(8x)------------|  (4x)
|-9-------12-----14----------------|
|----------------------------------|
|----------------------------------|

   Outro

|-----------------------------------------------------|
|-----------------------------------------------------|
|-----------------------------------------------------|  (4x)
|-9-9-9-9(4x)--12-12-12-12(2x)--14-14-14-14(2x)-------|  All tremelo picked
|-----------------------------------------------------|
|-----------------------------------------------------|

|----------------------------|
|----------------------------|
|----------------------------|  (4x)
|-9(15x)--12(8x)--14(8x)-----|
|----------------------------|
|----------------------------|

|-----------------------------------------------------|
|-----------------------------------------------------|
|-----------------------------------------------------|  (4x)
|-9-9-9-9(4x)--12-12-12-12(2x)--14-14-14-14(2x)-------|  All tremelo picked
|-----------------------------------------------------|
|-----------------------------------------------------|
Tap to rate this tab
# A B C D E F G H I J K L M N O P Q R S T U V W X Y Z