Song name
# A B C D E F G H I J K L M N O P Q R S T U V W X Y Z

The Physics Of Meaning - Oregon My Only True Friend tab

Help us improve GuitareTab! Take a short survey!
               Song - Oregon, My Only True Friend
              Artist - The Physics of Meaning
               Album - Self Titled
========================================================================

Tabs by: SteveTheDreamer
email: SteveTheAvidDreamer@gmail.com


Tuning - Standard (EADGBE)

                    (Intro)

          Slowly play softer, then fade out
                e|-------------------|
                B|-------------------|
                G|--2-2-2-2-2-2-2-2--|
                D|-5-5-5-5-5-5-5-5---|
                A|-------------------|
                E|-------------------|

  Fade in with Chorus

      Oregon...   My   Only___  True-Friend,  Hows the weather there... 
e|--------------------------------------------------------------------------
B|--------------------------------------------------------------------------
G|--2-2-2-2-2-2-2-2-2---2-2-2-2-2-2-2-2-2-2-2-2-2-2--2-2-2-2-2--------------
D|-5-5-5-5-5-3-3-3----------------------------------------------------------
A|-----------------3---1-1-1-1-1-3-3-----------3-3--1-1-1-1-1---------------
E|-----------------------------------1-1-1-1-1------------------------------

                          Oregon,   My Favorite Enemy____  Have you missed me
e|--------------------------------------------------------------------------
B|--------------------------------------------------------------------------
G|-------------------2-2-2-2-2-2-2-2-2-2-2-2-2-2-2-2-2-2-2-2-2-2-2-2-2-2-2-2
D|---0-2-5-3-2-3-5--5-5-5-5-5-3-3-3-----------------------------------------
A|1-3-------------------------------3-1-1-1-1-1-3-3-----------3-3-1-1-1-1-1-
E|--------------------------------------------------1-1-1-1-1---------------
D|--------------------------------------------------------------------------
                      Gone_______(Back?)__ Not____      Forgotten...
e|--------------------------------------------------------------------------
B|--------------------------------------------------------------------------
G|--------------------3-3-3-3-3-3-3-3-3-3-3--2-2-2-2-2-2-2-2-2-2-2-2-2-2-2--
D|---0-2-5-3-2-3-5---5-5-5-5-5-----2-2-2-2--3-3-3-3-3-----------------------
A|1-3--------------------------5-5--------------------3-3-0-1-1-1-1-1-1-0---
E|--------------------------------------------------------------------------


e|--------------------------------------------------------------------------
B|--------------------------------------------------------------------------
G|---2-2-2-2-2-2-2--2-2-2-2-0-0-0-0-0-0-0-0---------------------------------
D|--------------0-----------------------------------------------------------
A|-----------------3-3-3-3-3-3-3-3-3-3-3-3----------------------------------
E|--3-3-3-3-3-3-------------------------------------------------------------


(Chorus)
        Oregon...   Your Stupid Pretty Frame__ Leaves No one to blame....
e|--------------------------------------------------------------------------
B|--------------------------------------------------------------------------
G|---2-2-2-2-2-2-2-2-2---2-2-2-2-2-2-2-2-2-2-2-2-2-2-2-2-2-2-2--------------
D|--5-5-5-5-5-3-3-3---------------------------------------------------------
A|------------------3---1-1-1-1-1-3-3-----------3-3-1-1-1-1-1---------------
E|------------------------------------1-1-1-1-1-----------------------------

                          Oregon, My MostPainful Memories, Have you missed me
e|--------------------------------------------------------------------------
B|--------------------------------------------------------------------------
G|-------------------2-2-2-2-2-2-2-2-2-2-2-2-2-2-2-2-2-2-2-2-2-2-2-2-2-2-2-2
D|---0-2-5-3-2-3-5--5-5-5-5-5-3-3-3-----------------------------------------
A|1-3-------------------------------3-1-1-1-1-1-3-3-----------3-3-1-1-1-1-1-
E|--------------------------------------------------1-1-1-1-1---------------

                     Gone______   (Back?)  Not_______   Forgotten...     
e|--------------------------------------------------------------------------
B|--------------------------------------------------------------------------
G|--------------------3-3-3-3-3-3-3-3-3-3-3-3-2-2-2-2-2-2-2-2-2-2-2-2-2-2-2-
D|---0-2-5-3-2-3-5---5-5-5-5-5-----2-2-2-2-3-3-3-3-3------------------------
A|1-3--------------------------5-5-------------------3-3-0-1-1-1-1-1-1-0----
E|--------------------------------------------------------------------------



e|--------------------------------------------------------------------------
B|--------------------------------------------------------------------------
G|--2-2-2-2-2-2-2--2-2-2-2-0-0-0-0-0-0-0-0----------------------------------
D|-------------0------------------------------------------------------------
A|----------------3-3-3-3-3-3-3-3-3-3-3-3-----------------------------------
E|-3-3-3-3-3-3--------------------------------------------------------------


  (Outro)

        Repeat 7x Times
e|-----------------------------------
G|----2-2-2-2-2-2-2-2-2-2-2-2-2-2----
B|-----------------------------------
D|---1-1-1-1-1-----------------------
A|---------------------------3-3-----
E|-------------3-3-1-1-1-1-1---------


     The 7th time repeat like this at the very end
e|----------------------------------------------------------
G|----2-2-2-2-2-2-2-2-2-2-2-2-2-2--2-2-2-2-2-----2---2------
B|-------------------------------------------------------2--
D|---1-1-1-1-1--------------------1-1-1-1-1-----------------
A|---------------------------3-3----------------------------
E|-------------3-3-1-1-1-1-1-------------------3---3-----1--


This is a really great Song as well as a great Band.
There is also alot more to the song than just the guitar part,
there is alot of wind instruments throught the song,
and some great Violin and Xylophone work during the outro.

I am VERY unsure about the lyrics at the part starting " Gone..."
It is extremely hard to decipher what he is singing at that part.
If you have any information, or know ANY sites with Lyrics posted,
please let me know so I can update this tab.

If you've never heard of "The Physics of Meaning" i highly suggest you go listen to some.

http://www.thephysicsofmeaning.com/

Please email me if you think anything should be changed.

Tabs by: SteveTheDreamer
email: SteveTheAvidDreamer@gmail.com
Related for Oregon My Only True Friend tab