Song name
# A B C D E F G H I J K L M N O P Q R S T U V W X Y Z

The Pierces - Give It All Back chords

Highlighted       Show chord diagrams
-----------------------------------
Artist: The Pierces
Song: Give it all back
Album: Light of the Moon
-----------------------------------

chords: 
   G#      Fm     C#     Fm(*)
e|--4-------1------4-------8-----------|
B|--4-------1------5-------9-----------|
G|--5-------1------6------10-----------|
D|--6-------3------6------10-----------|
A|--6-------3------4-------8-----------|
E|--4-------1------x-------x-----------|

Powerchords:
   G#5      F5     C#5   
e|------------------------|
B|------------------------|
G|----------10------------|
D|--6-------10-----11-----|
A|--6-------8------11-----|
E|--4--------------9------|


verse:

          G#
You can't fight

            Fm
To make it better

           C#
You can't cry

                         G#
And hope that this won't end

          G#
Some say love

         Fm
It is forever

           C#
But all I know

                    G#
Is that we're just friends

Chorus:
So,
     Fm(*)
I'll give it all back, I'll give it all back

   C#
To you

      Fm(*)                 F(*)
I'll give it all back, I'll give it all back

    C#
To you.

G#
Yeah…

verse:
Now you know me
Like no other
And you know when
I'm telling lies
So you believe
If you wanna
But you know I
I wanna say goodbye

[Chorus]

           G#5
You can't fight

            F5
To make it better

          C#5
You can't cry

                         G#5
And hope that this won't end

          G#5
Some say love

         F5
It is forever

          C#5
But all I know

                    G#5
Is that we're just friends

[Chorus]

Yeah….

(so, I'll give it all back, I'll give it all back…) 



More convenient version: capo 4th fret, chords: E, C#m, A.

Have fun
Tap to rate this tab
# A B C D E F G H I J K L M N O P Q R S T U V W X Y Z