The Pierces - Secret tab

the is basically the whole song just repeat it or mix it in with the chords used in the 
tabs. :)

E---------------------------------------------------------------------------|
A---------------------------------------------------------------------------|
D---------------------------------------------------------------------------|
G---------------------------------------------------------------------------|
B---------------------------------------------------------------------------|
e---0---0---5---0---0---0---7---00----8---7---5h7---4---0---0---5---0------|

E---------------------------------------------------------------------------|
A---------------------------------------------------------------------------|
D---------------------------------------------------------------------------|
G-----------------------------------------2---------------------------------|
B---3---1---3-------3---1---3-----3---1-------------------------------------|
e--------------0---------------0--------------------------------------------|
Tap to rate this tab
 
# A B C D E F G H I J K L M N O P Q R S T U V W X Y Z