Song name
# A B C D E F G H I J K L M N O P Q R S T U V W X Y Z

The Pierces - Secret tab

Hey check out my channel on youtube. screen name :XxScreammyheadoffxX
someone stole my tab and took credit for it so I AM posting my own tabs from now on.

Here are the tab for chours and chords for verses
/=hammer on

E-0-0-5-0--0-0-7-0-0-8-7-5-/7-4--0-0-5-0------0-|
B----------------------------------------3-1-3--|
G-----------------------------------------------|
D-----------------------------------------------|
A-----------------------------------------------|
E-----------------------------------------------|

E-------0--------|
B-3-1-3----1-0---|
G--------------2-|
D----------------|
A----------------|
E----------------|

repeat this twice for chours^

Now the chords for the verses go like this:

Am          G         F                  E
Why do you smile like you've been told a secret
Am               G          F                 E
now your telling lies cause you have sworn to keep it
    F              E
but no one keeps a secret
F              E
no one keeps a secret
Am          G              F           E
why when we do our darkest deeds do we tell?
Am               G       F              E
they burn in our brains become a living hell
      F         E
cause everybody tells
F         E
everybody tells

then chours
Tap to rate this tab
 
# A B C D E F G H I J K L M N O P Q R S T U V W X Y Z