Guitaretab - guitar tabs
Song name
# A B C D E F G H I J K L M N O P Q R S T U V W X Y Z

The Pigeon Detectives - Taking My Time tab

			     TAKING MY TIME - THE PIGEON DETECTIVES
----------------------------------------------------------------------------
Tabbed by: TOBYM
Email:

Tuning:eadgbe

RYTHM GUITAR

PART A
e|--------------------------------------------------------------------------|
B|--------------------------------------------------------------------------|
G|--9-9-x-x-9-9-x-x-9-9-x-x-9-9-x-x-7-7-x-x-7-7-x-x-7-7-x-x-7-7-x-x---------|
D|--9-9-x-x-9-9-x-x-9-9-x-x-9-9-x-x-7-7-x-x-7-7-x-x-7-7-x-x-7-7-x-x---------|
A|--7-7-x-x-7-7-x-x-7-7-x-x-7-7-x-x-5-5-x-x-5-5-x-x-5-5-x-x-5-5-x-x---------|
E|--------------------------------------------------------------------------|

PART B
e|--------------------------------------------------------------------------|
B|--------------------------------------------------------------------------|
G|-9-9-9-9-9-9-9-9-9-9-9-9-9-9-9-9-7-7-7-7-7-7-7-7-7-7-7-7-7-7-7-7----------|
D|-9-9-9-9-9-9-9-9-9-9-9-9-9-9-9-9-7-7-7-7-7-7-7-7-7-7-7-7-7-7-7-7----------|
A|-7-7-7-7-7-7-7-7-7-7-7-7-7-7-7-7-5-5-5-5-5-5-5-5-5-5-5-5-5-5-5-5----------|
E|--------------------------------------------------------------------------|


PART C Slide between each chord change AND PLAY TWO STROKES ON F WHILST SLIDING
e|--------------------------------------------------------------------------|
B|--------------------------------------------------------------------------|
G|--9------11------9------11---------9--------------------------------------|
D|--9-X32--11-X32--9-X32--11-X32-----9-x4-----------------------------------|
A|--7------9-------7------9----------7--------------------------------------|
E|--------------------------------------------------------------------------|
[ Tab from: http://www.guitaretab.com/t/the-pigeon-detectives/157171.html ]
PART D
e|--------------------------------------------------------------------------|
B|--------------------------------------------------------------------------|
G|--------------------------------------------------------------------------|
D|--9------7------5------7--------------------------------------------------|
A|--9-X8---7-X8---5-X12--7-X4-----------------------------------------------|
E|--7------5------3------5--------------------------------------------------|


ORDER

PART A X 4
PART B X 1
PART A X 1
PART C X 1
PART A X 3
PART B X 1
PART A X 1
PART C X 1
PART D X 6  (BRIDGE)
PART C X 1
PART A X 2


LEAD GUITAR

e|--13-13-11-11-15-15-11-11----------'13'--HOLD-----------------------------|
B|--------------------------------------------------------------------------|
G|--------------------------------------------------------------------------|
D|--------------------------------------------------------------------------|
A|--------------------------------------------------------------------------|
E|--------------------------------------------------------------------------|

the first bit is played throughout the song differnt amount of times but it always ends 
holding the F (13)

SOLO (played four times with part d)

e|--------------------------------------------------------------------------|
B|-----------10-9-7---------10-9-7---------10-9-7--------10-9-7-------------|
G|-11-11--11----------9-9--9--------7-7--7--------7-7--7--------------------|
D|--------------------------------------------------------------------------|
A|--------------------------------------------------------------------------|
E|--------------------------------------------------------------------------|

PLEASE RATE MY TAB
Related for Taking My Time tab
Advertisement will be closed in 10 seconds