Song name
# A B C D E F G H I J K L M N O P Q R S T U V W X Y Z

The Pigeon Detectives - Im Not Gonna Take This tab

I thought as ther wasn't already a tab for this song i would tab the solo as quite a few 
have been asking for it.
I know it probably isn't 100% correct as it's my first tab

e|-------------------------------------------------------------------------|
B|----------------------------------------------10----10-------------------|
G|-10-10-10-12-12-12-12---10-10-10-12-12-12-10--12b14-12b14-12b14r12p10----|
D|----------------------------------------------------------------------12-|
A|-------------------------------------------------------------------------|
E|-------------------------------------------------------------------------|

e|-------------------------------------------------------------------------|
B|-------------11-------11-11--13b15r13p11----11---13b15r13p11---11--------|
G|-------10-12----12--12-----------------12------------------12------------|
D|-10-12-------------------------------------------------------------------|
A|-------------------------------------------------------------------------|
E|-------------------------------------------------------------------------|

e|-------------------------------------------13p10----10--13p10----10------|
B|-13b15r13p11----11---13b15r13p11----11-----------13-----------13---------|
G|-------------12------------------12--------------------------------------|
D|-------------------------------------------------------------------------|
A|-------------------------------------------------------------------------|
E|-------------------------------------------------------------------------|

This is the fast bit, i'm not 100% sure whether this is what he plays but this is what I use
e|--13p10------------------------------------------------------------------|
B|--------13p11------------------------------------------------------------|
G|--------------12p10----------------------------------10------------------|
D|--------------------12p10----------------------10h12---------------------|
A|--------------------------13p10----------10h13---------------------------|
E|--------------------------------13p10h13---------------------------------|

e|-------------------------------------------------------------------------|
B|-------------------------------------------------------------------------|
G|--12--12--12-10----------10-12-12b14r12p10----10-------------------------|
D|---------------12-10-12-------------------12------12p10---10---12p10---10|
A|---------------------------------------------------------13----------13--|
E|-------------------------------------------------------------------------|

e|-------------------------------------------------------------------------|
B|-------------------------------------------------------------------------|
G|-------------------------------------------------------------------------|
D|--12p10---10--12p10---10--12p10---10-------------------------------------|
A|--------13----------13----------13---------------------------------------|
E|-------------------------------------------------------------------------|
Tap to rate this tab
 
# A B C D E F G H I J K L M N O P Q R S T U V W X Y Z